Guitar Tabs, Chords and Lyrics
Songbooks are teporarily down. Dont panic. Working on recovering it. Dont save new songs in songbooks!


Remembrance  Gojira

As recorded by Gojira
(From the 2005 Album THE LINK)
Transcribed by ZACK PRATHER
Words and Music by Gojira
Arranged by Gojira
Gtr I (D G C F A D) - 'Untitled'
Gtr II (D G C F A D) - 'Untitled'
Q=200
[4/4] Gtrs I, II
E Q E Q E E +E E Q Q Q
 
 ||----------------|-----------------||
 ||o---------------|----------------o||
 ||----------------|-----------------||
 ||----------------|-----------------||
 ||o---------------|----------------o||
 ||--4-2--4-2--4-2-|-(2)-4-1--2------||

S S S S S S S S S S S S S S S S S S S S S S S S S S S S Q 3x
 
 ||----------------------------------|-----------------------------||
 ||o---------------------------------|----------------------------o||
 ||----------------------------------|-----------------------------||
 ||----------------------------------|-----------------------------||
 ||o---------------------------------|----------------------------o||
 ||--1-1-1-1-1-1-1-1-0-0-1-1-2-2-2-2-|-2-2-2-2-2-2-2-2-1-1-1-1-----||

Gtr I
S S S S S S S S S S S S S S S S S S S S S S S S S S S S Q
 
 |---------------------------------|-----------------------------|
 |---------------------------------|-----------------------------|
 |---------------------------------|-----------------------------|
 |---------------------------------|-----------------------------|
 |---------------------------------|-----------------------------|
 |-2-2-4-4-2-2-2-2-1-1-1-1-2-2-2-2-|-2-2-2-2-1-1-2-2-1-1-1-1-----|

|
| Gtr II
| S S S S S S S S S S S S S S S S S S S S S S S S S S S S Q
 
 |---------------------------------|-----------------------------|
 |---------------------------------|-----------------------------|
 |---------------------------------|-----------------------------|
 |-4-4-6-6-4-4-4-4-3-3-3-3-4-4-4-4-|-4-4-4-4-3-3-4-4-3-3-3-3-----|
 |---------------------------------|-----------------------------|
 |---------------------------------|-----------------------------|

Gtrs I, II
S S S S S S S S S S S S S S S S S S S S S S S S S S S S Q 3x
 
 ||----------------------------------|-----------------------------||
 ||o---------------------------------|----------------------------o||
 ||----------------------------------|-----------------------------||
 ||----------------------------------|-----------------------------||
 ||o---------------------------------|----------------------------o||
 ||--1-1-1-1-1-1-1-1-0-0-1-1-2-2-2-2-|-2-2-2-2-2-2-2-2-1-1-1-1-----||

Gtr I
S S S S S S S S S S S S S S S S S S S S S S S S S S S S Q
 
 |---------------------------------|-----------------------------|
 |---------------------------------|-----------------------------|
 |---------------------------------|-----------------------------|
 |---------------------------------|-----------------------------|
 |---------------------------------|-----------------------------|
 |-4-4-2-2-2-2-4-4-2-2-2-2-4-4-2-2-|-2-2-4-4-1-1-1-1-2-2-2-2-----|

|
| Gtr II
| S S S S S S S S S S S S S S S S S S S S S S S S S S S S Q
 
 |---------------------------------|-----------------------------|
 |---------------------------------|-----------------------------|
 |---------------------------------|-----------------------------|
 |-6-6-4-4-4-4-6-6-4-4-4-4-6-6-4-4-|-4-4-6-6-3-3-3-3-4-4-4-4-----|
 |---------------------------------|-------------------------x---|
 |---------------------------------|-------------------------x---|

[2/4] Gtrs I, [4/4]II
Q E E Q. Q. Q
 
 |-0------|-------------|
 |-0------|-------------|
 |-0------|-------------|
 |--------|-------------|
 |----x-x-|-------------|
 |----x-x-|-1----1----1-|

E E E E E E E E E E E E E E E E Q. Q. Q
 
 ||------------------|-----------------|---------------||
 ||o-----------------|-----------------|--------------o||
 ||------------------|-----------------|---------------||
 ||------------------|-----------------|---------------||
 ||o-x-x-x-x-x-x-x-x-|-x-x-x-x-x-x-x-x-|--------------o||
 ||--x-x-x-x-x-x-x-x-|-x-x-x-x-x-x-x-x-|-1----1----1---||

[4/4] [5/4]  
 
 PM------------------------------|

E E E E E E E E E E E E E E E E Q. Q. Q 4x +E Q. Q Q Q
 
 ||------------------|-----------------|---------------||--------------------|
 ||o-----------------|-----------------|--------------o||--------------------|
 ||------------------|-----------------|---------------||--------------------|
 ||------------------|-----------------|---------------||--------------------|
 ||o-0-1-2-1-0-1-2-1-|-0-1-2-1-0-1-2-1-|--------------o||--------------------|
 ||--0-1-2-1-0-1-2-1-|-0-1-2-1-0-1-2-1-|-1----1----1---||-(1)-1----1--1------|

[4/4] S S S S S S S S S S S S S S S S S S S S S S S S S S S S Q 3x
 
 ||----------------------------------|-----------------------------||
 ||o---------------------------------|----------------------------o||
 ||----------------------------------|-----------------------------||
 ||----------------------------------|-----------------------------||
 ||o---------------------------------|----------------------------o||
 ||--1-1-1-1-1-1-1-1-0-0-1-1-2-2-2-2-|-2-2-2-2-2-2-2-2-1-1-1-1-----||

Gtr I
S S S S S S S S S S S S S S S S S S S S S S S S S S S S Q
 
 |---------------------------------|---------------------------|
 |---------------------------------|---------------------------|
 |---------------------------------|---------------------------|
 |---------------------------------|---------------------------|
 |---------------------------------|---------------------------|
 |-2-2-4-4-2-2-2-2-1-1-1-1-2-2-2-2-|-2-2-2-2-1-1-2-2-1-1-1-1---|

|
| Gtr II
| S S S S S S S S S S S S S S S S S S S S S S S S S S S S Q
 
 |---------------------------------|---------------------------|
 |---------------------------------|---------------------------|
 |---------------------------------|---------------------------|
 |-4-4-6-6-4-4-4-4-3-3-3-3-4-4-4-4-|-4-4-4-4-3-3-4-4-3-3-3-3---|
 |---------------------------------|---------------------------|
 |---------------------------------|---------------------------|

Gtrs I, II
S S S S S S S S S S S S S S S S S S S S S S S S S S S S Q 3x
 
 ||----------------------------------|-----------------------------||
 ||o---------------------------------|----------------------------o||
 ||----------------------------------|-----------------------------||
 ||----------------------------------|-----------------------------||
 ||o---------------------------------|----------------------------o||
 ||--1-1-1-1-1-1-1-1-0-0-1-1-2-2-2-2-|-2-2-2-2-2-2-2-2-1-1-1-1-----||

Gtr I
S S S S S S S S S S S S S S S S S S S S S S S S S S S S Q
 
 |---------------------------------|-----------------------------|
 |---------------------------------|-----------------------------|
 |---------------------------------|-----------------------------|
 |---------------------------------|-----------------------------|
 |---------------------------------|-----------------------------|
 |-4-4-2-2-2-2-4-4-2-2-2-2-4-4-2-2-|-2-2-4-4-1-1-1-1-2-2-2-2-----|

|
| Gtr II
| S S S S S S S S S S S S S S S S S S S S S S S S S S S S Q
 
 |---------------------------------|-----------------------------|
 |---------------------------------|-----------------------------|
 |---------------------------------|-----------------------------|
 |-6-6-4-4-4-4-6-6-4-4-4-4-6-6-4-4-|-4-4-6-6-3-3-3-3-4-4-4-4-----|
 |---------------------------------|-------------------------x---|
 |---------------------------------|-------------------------x---|

[2/4] Gtrs I, [4/4]II
Q E E Q. Q. Q
 
 |-0------|--------------|
 |-0------|--------------|
 |-0------|--------------|
 |--------|--------------|
 |----x-x-|--------------|
 |----x-x-|-1----1----1--|

E E E E E E E E E E E E E E E E Q. Q. Q
 
 |-----------------|-----------------|--------------|
 |-----------------|-----------------|--------------|
 |-----------------|-----------------|--------------|
 |-----------------|-----------------|--------------|
 |-x-x-x-x-x-x-x-x-|-x-x-x-x-x-x-x-x-|--------------|
 |-x-x-x-x-x-x-x-x-|-x-x-x-x-x-x-x-x-|-1----1----1--|

[4/4] [5/4]  
 
 PM------------------------------|

E E E E E E E E E E E E E E E E Q. Q. Q 4x +E Q. Q Q Q
 
 ||------------------|-----------------|---------------||--------------------|
 ||o-----------------|-----------------|--------------o||--------------------|
 ||------------------|-----------------|---------------||--------------------|
 ||------------------|-----------------|---------------||--------------------|
 ||o-0-1-2-1-0-1-2-1-|-0-1-2-1-0-1-2-1-|--------------o||--------------------|
 ||--0-1-2-1-0-1-2-1-|-0-1-2-1-0-1-2-1-|-1----1----1---||-(1)-1----1--1------|

[4/4] S S S S S S S S S S S S S S S S S S S S S S S S S S S S S S S S
 
 |---------------------------------|----------------------------------|
 |---------------------------------|----------------------------------|
 |---------------------------------|----------------------------------|
 |---------------------------------|----------------------------------|
 |---------------------------------|----------------------------------|
 |-5-5-5-5-5-5-5-5-5-5-5-5-5-5-5-5-|-6-6-6-6-6-6-6-6-6-6-6-6-6-6-6-6--|

Q Q E E Q E E Q E E Q E E Q E E Q E E Q E E E E
 
 |--------------|---------------|---------------|----------------|
 |--------------|---------------|---------------|----------------|
 |--------------|---------------|---------------|----------------|
 |--------------|---------------|---------------|----------------|
 |----1------1--|-----1------1--|-----1------1--|-----1------1p0-|
 |-0-----0-0----|-0-0----0-0----|-0-0----0-0----|-0-0----0-0-----|

Q Q E E Q E E Q E E E E Q Q E E Q E E Q E E E E
 
 ||---------------|----------------|--------------|------------------||
 ||o--------------|----------------|--------------|-----------------o||
 ||---------------|----------------|--------------|------------------||
 ||---------------|----------------|--------------|------------------||
 ||o--------------|----------------|--------------|-----------------o||
 ||--0--3--0-0-3--|-0-0-3--0-0-3p2-|-0--3--0-0-3--|-0-0-3--0-0-3p2---||

S S S S S S S S S S S S S S S S S S S S S S S S S S S S S S S S
 
 |---------------------------------|---------------------------------|
 |---------------------------------|---------------------------------|
 |---------------------------------|---------------------------------|
 |---------------------------------|---------------------------------|
 |---------------------------------|---------------------------------|
 |-5-5-5-5-5-5-5-5-5-5-5-5-5-5-5-5-|-6-6-6-6-6-6-6-6-6-6-6-6-6-6-6-6-|

Gtr I
Q Q E E Q E E Q E E E E Q Q E E Q E E Q E E E E
 
 ||---------------|----------------|--------------|------------------||
 ||o--------------|----------------|--------------|-----------------o||
 ||---------------|----------------|--------------|------------------||
 ||---------------|----------------|--------------|------------------||
 ||o--------------|----------------|--------------|-----------------o||
 ||--0--3--0-0-3--|-0-0-3--0-0-3p2-|-0--3--0-0-3--|-0-0-3--0-0-3p2---||

|
| Gtr II
| Q Q E E Q E E Q E E E E Q Q E E Q E E Q E E E E
 
 ||---------------|----------------|--------------|------------------||
 ||o--------------|----------------|--------------|-----------------o||
 ||---------------|----------------|--------------|------------------||
 ||---------------|----------------|--------------|------------------||
 ||o--------------|----------------|--------------|-----------------o||
 ||--0--6--0-0-6--|-0-0-6--0-0-6p5-|-0--6--0-0-6--|-0-0-6--0-0-6p5---||

Gtrs I, II
Q Q E E Q E E Q E E E E Q Q E E Q E E Q E E E E
 
 ||---------------|----------------|--------------|------------------||
 ||o--------------|----------------|--------------|-----------------o||
 ||---------------|----------------|--------------|------------------||
 ||---------------|----------------|--------------|------------------||
 ||o--------------|----------------|--------------|-----------------o||
 ||--0--3--0-0-3--|-0-0-3--0-0-3p2-|-0--3--0-0-3--|-0-0-3--0-0-3p2---||

Gtr I
Q Q E E Q E E Q E E E E Q Q E E Q E E Q E E E E
 
 ||---------------|----------------|--------------|------------------||
 ||o--------------|----------------|--------------|-----------------o||
 ||---------------|----------------|--------------|------------------||
 ||---------------|----------------|--------------|------------------||
 ||o--------------|----------------|--------------|-----------------o||
 ||--0--3--0-0-3--|-0-0-3--0-0-3p2-|-0--3--0-0-3--|-0-0-3--0-0-3p2---||

|
| Gtr II
| Q Q E E Q E E Q E E E E Q Q E E Q E E Q E E E E
 
 ||---------------|----------------|--------------|------------------||
 ||o--------------|----------------|--------------|-----------------o||
 ||---------------|----------------|--------------|------------------||
 ||---------------|----------------|--------------|------------------||
 ||o--------------|----------------|--------------|-----------------o||
 ||--0--6--0-0-6--|-0-0-6--0-0-6p5-|-0--6--0-0-6--|-0-0-6--0-0-6p5---||

Gtrs I, II
S S S S S S S S S S S S S S S S S S S S S S S S S S S S S S S S
 
 |---------------------------------|---------------------------------|
 |---------------------------------|---------------------------------|
 |---------------------------------|---------------------------------|
 |---------------------------------|---------------------------------|
 |---------------------------------|---------------------------------|
 |-5-5-5-5-5-5-5-5-5-5-5-5-5-5-5-5-|-6-6-6-6-6-6-6-6-6-6-6-6-6-6-6-6-|

S S S S S S S S S S S S S S S S S S S S S S S S S S S S S S S S
 
 |---------------------------------|-----------------------------------|
 |---------------------------------|-----------------------------------|
 |---------------------------------|-----------------------------------|
 |---------------------------------|-----------------------------------|
 |---------------------------------|-----------------------------------|
 |-1-1-1-1-5-5-5-5-1-1-1-1-5-5-5-5-|-4-4-4-4-4-4-4-4-4-4-4-4-4-4-4-4---|

E=180
[E] [E] [E] [E] [E] [E] [E] [E] [E] [E] [E] [E] [E] [E] [E] [E]  
 
 |-----------------|-----------------|
 |-----------------|-----------------|
 |---0---0---0---0-|---0---0---0---0-|
 |-----------------|-----------------|
 |-----------------|-----------------|
 |-4---4---4---4---|-5---5---5---5---|

Q=200
Q Q E E Q E E Q E E E E Q Q E E Q E E Q E E E E
 
 ||---------------|----------------|--------------|------------------||
 ||o--------------|----------------|--------------|-----------------o||
 ||---------------|----------------|--------------|------------------||
 ||---------------|----------------|--------------|------------------||
 ||o--------------|----------------|--------------|-----------------o||
 ||--0--3--0-0-3--|-0-0-3--0-0-3p2-|-0--3--0-0-3--|-0-0-3--0-0-3p2---||

Gtr I
Q Q E E Q E E Q E E E E Q Q E E Q E E Q E E E E
 
 ||---------------|----------------|--------------|------------------||
 ||o--------------|----------------|--------------|-----------------o||
 ||---------------|----------------|--------------|------------------||
 ||---------------|----------------|--------------|------------------||
 ||o--------------|----------------|--------------|-----------------o||
 ||--0--3--0-0-3--|-0-0-3--0-0-3p2-|-0--3--0-0-3--|-0-0-3--0-0-3p2---||

|
| Gtr II
| Q Q E E Q E E Q E E E E Q Q E E Q E E Q E E E E
 
 ||---------------|----------------|--------------|------------------||
 ||o--------------|----------------|--------------|-----------------o||
 ||---------------|----------------|--------------|------------------||
 ||---------------|----------------|--------------|------------------||
 ||o--------------|----------------|--------------|-----------------o||
 ||--0--6--0-0-6--|-0-0-6--0-0-6p5-|-0--6--0-0-6--|-0-0-6--0-0-6p5---||

E=180
[E] [E] [E] [E] [E] [E] [E] [E] [E] [E] [E] [E] [E] [E] [E] [E]  
 
 ||------------------|-----------------|
 ||o-----------------|-----------------|
 ||----0---0---0---0-|---0---0---0---0-|
 ||------------------|-----------------|
 ||o-----------------|-----------------|
 ||--4---4---4---4---|-5---5---5---5---|

PM--|
E E E Q Q E +E E E E Q.. +S 3x
 
 |---------------|----------------------||
 |---------------|---------------------o||
 |---------------|----------------------||
 |---------------|----------------------||
 |---------------|---------------------o||
 |-2-2-2-3--3--3-|-(3)-2-3-2-1b2r==(1)--||

E=180
[E] [E] [E] [E] [E] [E] [E] [E] [E] [E] [E] [E] [E] [E] [E] [E]  
 
 |-----------------|-----------------|
 |-----------------|-----------------|
 |---0---0---0---0-|---0---0---0---0-|
 |-----------------|-----------------|
 |-----------------|-----------------|
 |-4---4---4---4---|-5---5---5---5---|

Q=180
[4/4] S S S S S Q S S S S E. E S S S Q S S S S E.
 
 |-------------------------|-----------------------|
 |-------------------------|-----------------------|
 |-------------------------|-----------------------|
 |-------------------------|-----------------------|
 |-x---x-x-x------x-x-x----|---x-x-x------x-x-x----|
 |-x---x-x-x------x-x-x----|---x-x-x------x-x-x----|

|-3-| |-3-|
E E E E E E S Q.. S S S S S S S S E Q.
 
 |---------------------|------------------------|
 |---------------------|------------------------|
 |---------------------|------------------------|
 |---------------------|------------------------|
 |-x-x-x-x-x-x-x-------|-x-x-x-x-x-x-x-x-x------|
 |-x-x-x-x-x-x-x-------|-x-x-x-x-x-x-x-x-x------|
 |-3-| |-3-| |-3-| |-3-| |-3-| |-3-|

E E E E E E E E E E E E E E E E E E E Q.
 
 |-------------------------|--------------------|
 |-------------------------|--------------------|
 |-------------------------|--------------------|
 |-------------------------|--------------------|
 |-x-x-x-x-x-x-x-x-x-x-x-x-|-x-x-x-x-x-x-x------|
 |-x-x-x-x-x-x-x-x-x-x-x-x-|-x-x-x-x-x-x-x------|

S S S S H S S S S E S S S Q Q..
 
 |----------------------|------------------|
 |----------------------|------------------|
 |----------------------|------------------|
 |----------------------|------------------|
 |-x-x-x--------x-x-x---|---x-x-x----------|
 |-x-x-x--------x-x-x---|---x-x-x----------|

S S S S S S S S S S S S S S S S S S S S S S S E. E Q
 
 |---------------------------------|-----------------------|
 |---------------------------------|-----------------------|
 |---------------------------------|-----------------------|
 |---------------------------------|-----------------------|
 |-x-x-x-x-x-x-x-x-x-x-x-x-x-x-x-x-|-x---x-x-x---x----x----|
 |-x-x-x-x-x-x-x-x-x-x-x-x-x-x-x-x-|-x---x-x-x---x----x----|

E S S S Q S S S S E. E S S S Q S S S S E.
 
 ||------------------------|-----------------------|
 ||o-----------------------|-----------------------|
 ||------------------------|-----------------------|
 ||------------------------|-----------------------|
 ||o---x-x-x------x-x-x----|---x-x-x------x-x-x----|
 ||----x-x-x------x-x-x----|---x-x-x------x-x-x----|

|-3-| |-3-|
E E E E E E S Q.. S S S S S S S S E S E E.
 
 |---------------------|---------------------0----|
 |---------------------|---------------------0----|
 |---------------------|---------------------0----|
 |---------------------|--------------------------|
 |-x-x-x-x-x-x-x-------|-x-x-x-x-x-x-x-x-x--------|
 |-x-x-x-x-x-x-x-------|-x-x-x-x-x-x-x-x-x--------|
 |-3-| |-3-| |-3-| |-3-| |-3-| |-3-|

E E E E E E E E E E E E E E E E E E E Q.
 
 |-------------------------|--------------------|
 |-------------------------|--------------------|
 |-------------------------|--------------------|
 |-------------------------|--------------------|
 |-x-x-x-x-x-x-x-x-x-x-x-x-|-x-x-x-x-x-x-x------|
 |-x-x-x-x-x-x-x-x-x-x-x-x-|-x-x-x-x-x-x-x------|

S S S S H S S S S E S S S Q Q..
 
 |----------------------|------------------|
 |----------------------|------------------|
 |----------------------|------------------|
 |----------------------|------------------|
 |-x-x-x--------x-x-x---|---x-x-x----------|
 |-x-x-x--------x-x-x---|---x-x-x----------|

S S S S S S S S S S S S S S S S S S S S S S S E. E Q
 
 |---------------------------------|-----------------------|
 |---------------------------------|-----------------------|
 |---------------------------------|-----------------------|
 |---------------------------------|-----------------------|
 |-x-x-x-x-x-x-x-x-x-x-x-x-x-x-x-x-|-x---x-x-x---x----x----|
 |-x-x-x-x-x-x-x-x-x-x-x-x-x-x-x-x-|-x---x-x-x---x----x----|

E S S S Q S S S S E. E S S S Q S S S S E.
 
 |-----------------------|-----------------------|
 |-----------------------|-----------------------|
 |-----------------------|-----------------------|
 |-----------------------|-----------------------|
 |---x-x-x------x-x-x----|---x-x-x------x-x-x----|
 |---x-x-x------x-x-x----|---x-x-x------x-x-x----|

|-3-| |-3-|
E E E E E E S Q.. S S S S S S S S E Q.
 
 |---------------------|------------------------|
 |---------------------|------------------------|
 |---------------------|------------------------|
 |---------------------|------------------------|
 |-x-x-x-x-x-x-x-------|-x-x-x-x-x-x-x-x-x------|
 |-x-x-x-x-x-x-x-------|-x-x-x-x-x-x-x-x-x------|
 |-3-| |-3-| |-3-| |-3-| |-3-| |-3-|

E E E E E E E E E E E E E E E E E E E Q.
 
 |-------------------------|--------------------|
 |-------------------------|--------------------|
 |-------------------------|--------------------|
 |-------------------------|--------------------|
 |-x-x-x-x-x-x-x-x-x-x-x-x-|-x-x-x-x-x-x-x------|
 |-x-x-x-x-x-x-x-x-x-x-x-x-|-x-x-x-x-x-x-x------|
 |-3-| |-3-| |-3-| |-3-| |-3-| |-3-|

E E E E E E E E E E E E E E E E E E E Q.
 
 |-------------------------|--------------------|
 |-------------------------|--------------------|
 |-------------------------|--------------------|
 |-------------------------|--------------------|
 |-x-x-x-x-x-x-x-x-x-x-x-x-|-x-x-x-x-x-x-x------|
 |-x-x-x-x-x-x-x-x-x-x-x-x-|-x-x-x-x-x-x-x------|

S S S S S S S S S S S S S S S S S S S S S S S E. E Q 3x
 
 |---------------------------------|------------------------||
 |---------------------------------|-----------------------o||
 |---------------------------------|------------------------||
 |---------------------------------|------------------------||
 |-x-x-x-x-x-x-x-x-x-x-x-x-x-x-x-x-|-x---x-x-x---x----x----o||
 |-x-x-x-x-x-x-x-x-x-x-x-x-x-x-x-x-|-x---x-x-x---x----x-----||

Duration Legend
 
 ---------------
 W - whole; H - half; Q - quarter; E - 8th; S - 16th; T - 32nd; X - 64th; a - acciaccatura

+ - note tied to previous; . - note dotted; .. - note double dotted
Uncapitalized letters represent notes that are staccato (1/2 duration)
Irregular groupings are notated above the duration line
Duration letters will always appear directly above the note/fret number it represents the
duration for. Duration letters with no fret number below them represent rests. Multi-
bar rests are notated in the form Wxn, where n is the number of bars to rest for. Low
melody durations appear below the staff
Tablature Legend
 
 ----------------

h - hammer-on
p - pull-off
b - bend
pb - pre-bend
r - bend release (if no number after the r, then release immediately)
/\ - slide into or out of (from/to "nowhere")
s - legato slide
S - shift slide
- natural harmonic
(n) - artificial harmonic
n(n) - tapped harmonic
~ - vibrato
tr - trill
T - tap
TP - trem. picking
PM - palm muting
\n/ - tremolo bar dip; n = amount to dip
\n - tremolo bar down
n/ - tremolo bar up
/n\ - tremolo bar inverted dip
= - hold bend; also acts as connecting device for hammers/pulls
- volume swell (louder/softer)
x - on rhythm slash represents muted slash
o - on rhythm slash represents single note slash
Misc Legend
 
 -----------

| - bar
|| - double bar
||o - repeat start
o|| - repeat end
*| - double bar (ending)
: - bar (freetime)
$ - Segno
& - Coda
Tempo markers - = BPM(8/16=s8/s16), where s8 = swing 8ths, s16 = swing 16ths

Important: The song above is NOT stored on the Chordie server. The original song is hosted at www.guitaretab.com. Chordie works as a search engine and provides on-the-fly formatting. Chordie does not index songs against artists'/composers' will. To remove this song please click here.

Text color:
Chord color:
Chord grids: 
Font size:    
Page size: 

E
Rate #2 of 4 versions

Jango Player

Login - add to songbook

SHARE PAGE  




You need to log in to post comments