Guitar Tabs, Chords and Lyrics
Server problems seems to be fixed. Chordie has been experiencing problems with songs disappearing. These issues now seems to be fixed, but still verifying the fix. If you find anything strange, please email admin@chordie.com.


The Art of Dying   Gojira

 
 -||--------------------------|-------------------------||---------------------|
 -||--------------------------|-------------------------||---------------------|
 -||--------------------------|-------------------------||---------------------|
 -||--------------------------|-------------------------||---------------------|
 -||--------------------------|-------------------------||---------------------|
 -||--0-0-0-0-0-0-0-0-0-0-0-0-|-0-0-0-0-0-0-0-0-0-0-0-0-||---------------------|
 PM- - - - - - - - - - - - - - - - - - - - - - - -
 -||--------------------------|--------------------------||--------------------|
 -||--------------------------|--------------------------||--------------------|
 -||--------------------------|--------------------------||--------------------|
 -||--------------------------|--------------------------||--------------------|
 -||--------------------------|--------------------------||--------------------|
 -||--x-x-x-x-x-x-x-x-x-x-x-x-|-x-x-x-x-x-x-x-x-x-x-x-x--||--------------------|
 N.H - - - - - - - - - - - - - - - - - - - - - - -

 


 


 Laisser glisser le main gauche entre la 3eme et la 7eme fret de fa├žon a faire des harmonics.


 


 

 
 -||--------------------------|-------------------------|------------||--------|
 -||--------------------------|-------------------------|------------||--------|
 -||--------------------------|-------------------------|------------||--------|
 -||--------------------------|-------------------------|------------||--------|
 -||--------------------------|-------------------------|------------||--------|
 -||--0-0-0-0-0-0-0-0-0-0-0-0-|-0-0-0-0-0-0-0-0-0-0-0-0-|--/12b14r12-||--------|
 PM- - - - - - - - - - - - - - - - - - - - - - - -
 -||----------------------------------------------|----------------------------|
 -||----------------------------------------------|----------------------------|
 -||----------------------------------------------|----------------------------|
 -||----------------------------------------------|----------------------------|
 -||-0--------------------------------------------|-0--------------------------|
 -||-0---1--1--1--1--1--1--1--1--1--1--1--1--1--1-|-0--1--1--1--1--1--1--0--1--|

 


 PM -


 


 

 
 ------------------||x2--------------------------------------------------------|
 ------------------||----------------------------------------------------------|
 ------------------||----------------------------------------------------------|
 ------------------||----------------------------------------------------------|
 ------------------||----------------------------------------------------------|
 --0----0--0--0--0-||----------------------------------------------------------|
 -||----------------------------------------------|----------------------------|
 -||----------------------------------------------|----------------------------|
 -||----------------------------------------------|----------------------------|
 -||----------------------------------------------|----------------------------|
 -||-0--------------------------------------------|-0--------------------------|
 -||-0---8--8--8--8--8--8--8--8--8--8--7--7--5--5-|-0---8--8--8--8--8--8--7----|

 


 PM- -


 


 

 
 ---------------------------||x2-----------------------------------------------|
 ---------------------------||-------------------------------------------------|
 ---------------------------||-------------------------------------------------|
 ---------------------------||-------------------------------------------------|
 ---------------------------||-------------------------------------------------|
 -8--10--10--10--12--12--12-||-------------------------------------------------|
 -||----------------------------------------------|----------------------------|
 -||----------------------------------------------|----------------------------|
 -||----------------------------------------------|----------------------------|
 -||----------------------------------------------|----------------------------|
 -||-0--------------------------------------------|-0--------------------------|
 -||-0---1--1--1--1--1--1--1--1--1--1--1--1--1--1-|-0--1--1--1--1--1--1--0--1--|

 


 PM -


 


 

 
 ------------------||x2--------------------------------------------------------|
 ------------------||----------------------------------------------------------|
 ------------------||----------------------------------------------------------|
 ------------------||----------------------------------------------------------|
 ------------------||----------------------------------------------------------|
 --0----0--0--0--0-||----------------------------------------------------------|
 -||----------------------------------------------|----------------------------|
 -||----------------------------------------------|----------------------------|
 -||----------------------------------------------|----------------------------|
 -||----------------------------------------------|----------------------------|
 -||-0--------------------------------------------|-0--------------------------|
 -||-0---8--8--8--8--8--8--8--8--8--8--7--7--5--5-|-0---8--8--8--8--8--8--7----|

 


 PM- -


 


 

 
 ---------------------------||x2-----------------------------------------------|
 ---------------------------||-------------------------------------------------|
 ---------------------------||-------------------------------------------------|
 ---------------------------||-------------------------------------------------|
 ---------------------------||-------------------------------------------------|
 -8--10--10--10--12--12--12-||-------------------------------------------------|
 -||--------------------------|-------------------------||---------------------|
 -||--------------------------|-------------------------||---------------------|
 -||--------------------------|-------------------------||---------------------|
 -||--------------------------|-------------------------||---------------------|
 -||--------------------------|-------------------------||---------------------|
 -||--0-0-0-0-0-0-0-0-0-0-0-0-|-0-0-0-0-0-0-0-0-0-0-0-0-||---------------------|
 PM- - - - - - - - - - - - - - - - - - - - - - - -
 -||----------------------------------------------|----------------------------|
 -||----------------------------------------------|----------------------------|
 -||----------------------------------------------|----------------------------|
 -||----------------------------------------------|----------------------------|
 -||-0--------------------------------------------|-0--------------------------|
 -||-0---1--1--1--1--1--1--1--1--1--1--1--1--1--1-|-0--1--1--1--1--1--1--0--1--|

 


 PM -


 


 

 
 ------------------||x2--------------------------------------------------------|
 ------------------||----------------------------------------------------------|
 ------------------||----------------------------------------------------------|
 ------------------||----------------------------------------------------------|
 ------------------||----------------------------------------------------------|
 --0----0--0--0--0-||----------------------------------------------------------|
 -||----------------------------------------------|----------------------------|
 -||----------------------------------------------|----------------------------|
 -||----------------------------------------------|----------------------------|
 -||----------------------------------------------|----------------------------|
 -||-0--------------------------------------------|-0--------------------------|
 -||-0---8--8--8--8--8--8--8--8--8--8--7--7--5--5-|-0---8--8--8--8--8--8--7----|

 


 PM- -


 


 

 
 ---------------------------||x2-----------------------------------------------|
 ---------------------------||-------------------------------------------------|
 ---------------------------||-------------------------------------------------|
 ---------------------------||-------------------------------------------------|
 ---------------------------||-------------------------------------------------|
 -8--10--10--10--12--12--12-||-------------------------------------------------|
 -||-12-----12-----12-----12-----12-----12------5-5-5-5-5-5-5-5-5-5-5-5-5-5-5--|
 -||-12-----12-----12-----12-----12-----12------5-5-5-5-5-5-5-5-5-5-5-5-5-5-5--|
 -||-12-----12-----12-----12-----12-----12------5-5-5-5-5-5-5-5-5-5-5-5-5-5-5--|
 -||--------------------------------------------5-5-5-5-5-5-5-5-5-5-5-5-5-5-5--|
 -||-----0------0------0------0------0------0----------------------------------|
 -||-----0------0------0------0------0------0----------------------------------|
 - - - - - -
 -5-5-5-5-5-5-5-5-5-5-5-5-5-5-5-5-5-5-5-5--7-7-7-7-7-7-7-7-7-7-7-7--0-0-0-0-0--|
 -5-5-5-5-5-5-5-5-5-5-5-5-5-5-5-5-5-5-5-5--7-7-7-7-7-7-7-7-7-7-7-7--0-0-0-0-0--|
 -5-5-5-5-5-5-5-5-5-5-5-5-5-5-5-5-5-5-5-5--7-7-7-7-7-7-7-7-7-7-7-7--0-0-0-0-0--|
 -5-5-5-5-5-5-5-5-5-5-5-5-5-5-5-5-5-5-5-5--7-7-7-7-7-7-7-7-7-7-7-7--0-0-0-0-0--|
 ------------------------------------------------------------------------------|
 ------------------------------------------------------------------------------|
 -0-0-0-0-0-0-0-0-0-0-0-0-0-0-0-0-0-0-0----------------------------------------|
 -0-0-0-0-0-0-0-0-0-0-0-0-0-0-0-0-0-0-0----------------------------------------|
 -0-0-0-0-0-0-0-0-0-0-0-0-0-0-0-0-0-0-0----------------------------------------|
 -0-0-0-0-0-0-0-0-0-0-0-0-0-0-0-0-0-0-0----------------------------------------|
 ------------------------------------------------------------------------------|
 ----------------------------------------2-2-2-2-2-2-2-2-2-2-2-2--3-3-3-3-3-3--|
 -----------------5-5-5-5-5-5-5-5-5-5-5-5-5-5-5-5-5-5-5-5-5-5-5-5-5-5-5-5-5-5--|
 -----------------5-5-5-5-5-5-5-5-5-5-5-5-5-5-5-5-5-5-5-5-5-5-5-5-5-5-5-5-5-5--|
 -----------------5-5-5-5-5-5-5-5-5-5-5-5-5-5-5-5-5-5-5-5-5-5-5-5-5-5-5-5-5-5--|
 -----------------5-5-5-5-5-5-5-5-5-5-5-5-5-5-5-5-5-5-5-5-5-5-5-5-5-5-5-5-5-5--|
 ------------------------------------------------------------------------------|
 -3-3--2-2--0-0----------------------------------------------------------------|
 -5-5-5-5-5-5--7-7-7-7-7-7-7-7-7-7-7-7--0-0-0-0-0-0-0-0-0-0-0-0-0-0-0-0-0-0-0--|
 -5-5-5-5-5-5--7-7-7-7-7-7-7-7-7-7-7-7--0-0-0-0-0-0-0-0-0-0-0-0-0-0-0-0-0-0-0--|
 -5-5-5-5-5-5--7-7-7-7-7-7-7-7-7-7-7-7--0-0-0-0-0-0-0-0-0-0-0-0-0-0-0-0-0-0-0--|
 -5-5-5-5-5-5--7-7-7-7-7-7-7-7-7-7-7-7--0-0-0-0-0-0-0-0-0-0-0-0-0-0-0-0-0-0-0--|
 ------------------------------------------------------------------------------|
 ------------------------------------------------------------------------------|
 -0-0-0-0-0----||-x2-----------------------------------------------------------|
 -0-0-0-0-0----||--------------------------------------------------------------|
 -0-0-0-0-0----||--------------------------------------------------------------|
 -0-0-0-0-0----||--------------------------------------------------------------|
 --------------||--------------------------------------------------------------|
 --------------||--------------------------------------------------------------|
 -||-------------------------------------------------------------------|x3-----|
 -||-------------------------------------------------------------------|-------|
 -||-------------------------------------------------------------------|-------|
 -||------------------------------3p2--0--2--0--3--0--5--0--5--0--5--7-|-------|
 -||-------------------------------------------------------------------|-------|
 -||-0-0-0--0-0-0--0-0-0--0-0-0----------------------------------------|-------|
 PM - - - - - - - - - - -
 ----------------------------------------------------------------------||------|
 ----------------------------------------------------------------------||------|
 ----------------------------------------------------------------------||------|
 ----------------------------------------------------------------------||------|
 ----------------------------------------------------------------------||------|
 ----0-0-0--0-0-0--0-0-0--0-0-0--3p2--0--2--0--3--0--5--0--5--0--5--7--||------|
 PM- - - - - - - - - - - -
 -||---------5-/-7--5----0------/5----0-5--0--------------------5-/-7--5----0--|
 -||---------5-/-7--5----0------/5----0-5--0--------------------5-/-7--5----0--|
 -||---------5-/-7--5----0------/5----0-5--0--------------------5-/-7--5----0--|
 -||----------------------------/5---------------------------------------------|
 -||--0--0-------------------0-----------------0--0--3----0--0-----------------|
 -||--0--0-------------------0-----------------0--0--3----0--0-----------------|
 PM- - - - - - -
 ------/5----0-5--0------------||----------------------------------------------|
 ------/5----0-5--0------------||----------------------------------------------|
 ------/5----0-5--0------------||----------------------------------------------|
 ------/5----------------------||----------------------------------------------|
 ---0----------------0--0------||----------------------------------------------|
 ---0----------------0--0--2h3-||----------------------------------------------|

 


 [-] [-] [-]  


 


 This is a tab on the reverse track that you can find at the end on this song.


 It's actually the first riff of esoteric surgery.


 Tunning : D standard


 


 

 
 -||---------------------------------------------------------------------------|
 -||---------------------------------------------------------------------------|
 -||-9--------7-------5-------5---------5-----5-----5-----5---9-------7--------|
 -||-----9--------9-------9------9--7------7-----5-----4----------9-------9----|
 -||---------------------------------------------------------------------------|
 -||---------------------------------------------------------------------------|
 ------------------------------------------------------------------------------|
 ------------------------------------------------------------------------------|
 -5-------5---------5------5-----5-----5---9--11---11b---7------7------5-------|
 -----9-------9--7------7-----5-----4------------9----------9------9------9----|
 ------------------------------------------------------------------------------|
 ------------------------------------------------------------------------------|
 -----------------------------------||-----------------------------------------|
 -----------------------------------||-----------------------------------------|
 --5---------5-----5------5-----5---||-----------------------------------------|
 -----9--7------7-----5------4------||-----------------------------------------|
 -----------------------------------||-----------------------------------------|
 -----------------------------------||-----------------------------------------|


Important: The song above is NOT stored on the Chordie server. The original song is hosted at www.guitaretab.com. Chordie works as a search engine and provides on-the-fly formatting. Chordie does not index songs against artists'/composers' will. To remove this song please click here.

This song is displayed as text-only. Transposing and tuning is only available for chordpro-songs.
Rate #1 of 2 versions

Login - add to songbook

SHARE PAGE  




You need to log in to post comments