Guitar Tabs, Chords and Lyrics
Server problems seems to be fixed. Chordie has been experiencing problems with songs disappearing. These issues now seems to be fixed, but still verifying the fix. If you find anything strange, please email admin@chordie.com.


Backbone   Gojira

 
 --||-----------------------------------------------------------||-------------|
 --||-----------------------------------------------------------||-------------|
 --||-----------------------------------------------------------||-------------|
 --||-----------------------------------------------------------||-------------|
 --||------------------------------9-9-9-101010--9-9-9-101010---||-------------|
 --||--0-0-0--0-0-0--0-0-0--0-0-0--0-0-0--0-0-0--0-0-0--0-0-0---||-------------|
 - - - - - - - - - - - - - - - - - - - - - - - -
 --||-----------------------------------------------------------||-------------|
 --||----------------------------------------------------x2-----||-------------|
 --||-----------------/6--------------------------/6------------||-------------|
 --||------------------x---------------------------x------------||-------------|
 --||--2--2-2-2-2-2---/4--------------------------/4------------||-------------|
 --||--0--0-0-0-0-0---------3-3-3--2-2-2--1-1-0-----------------||-------------|
 - - - - - - - - - - - - - - -
 --||-----------------------------------------------------------||-------------|
 --||-----------------------------------------------------------||-------------|
 --||-----------------------------------------------------------||-------------|
 --||-----------------------------------------------------------||-------------|
 --||------------------------------9-9-9-101010--9-9-9-101010---||-------------|
 --||--0-0-0--0-0-0--0-0-0--0-0-0--0-0-0--0-0-0--0-0-0--0-0-0---||-------------|
 - - - - - - - - - - - - - - - - - - - - - - - -
 --||-----------------------------------------------------------||-------------|
 --||---------------------------------------------------x2------||-------------|
 --||-----------------------------------------------------------||-------------|
 --||------------------/9--------------------------/9-----------||-------------|
 --||---2--2-2-2-2-2---/9--------------------------/9-----------||-------------|
 --||---0--0-0-0-0-0---/9----3-3-3--2-2-2--1-1-0---/9-----------||-------------|
 - - - - - - - - - - - - - - -
 --||-----------------------------------------------------------||-------------|
 --||-----------------------------------------------------------||-------------|
 --||-----------------------------------------------------------||-------------|
 --||-----------------------------------------------------------||-------------|
 --||------------------------------9-9-9-101010--9-9-9-101010---||-------------|
 --||--0-0-0--0-0-0--0-0-0--0-0-0--0-0-0--0-0-0--0-0-0--0-0-0---||-------------|
 - - - - - - - - - - - - - - - - - - - - - - - -
 --||--------------------------------------------------------------------------|
 --||--------------------------------------------------------------------------|
 --||----------------/6--------------------------/6------------------/6--------|
 --||-----------------x---------------------------x-------------------x--------|
 --||-2--2-2-2-2-2---/4--------------------------/4----2--2-2-2-2-2--/4--------|
 --||-0--0-0-0-0-0---------3-3-3--2-2-2--1-1-0---------0--0-0-0-0-0-------3-3--|
 - - - - - - - - - - - - - - - - - - - - - - -
 ------------------------------------------------------------------------------|
 ------------------------------------------------------------------------------|
 ---------------/6-------------------------------------------------------------|
 ----------------x----------------/9-------------------------/9----------------|
 ---------------/4---2--2-2-2-2---/9-------------------------/9---2--2-2-2-2---|
 -3-2-2-2-1-1-0------0--0-0-0-0---/9----3-3-3--2-2-2--1-1-0--/9---0--0-0-0-0---|
 - - - - - - - - - - - - - - - - - - - - - - - - - -
 ------------------------------||----------------------------------------------|
 ------------------------------||----------------------------------------------|
 ------------------------------||----------------------------------------------|
 -/9--------------------/9-----||----------------------------------------------|
 -/9--------------------/9-----||----------------------------------------------|
 -/9-3-3-3-2-2-2-1-1-0--/9-----||----------------------------------------------|
 - - - - - - - - -
 --||---------------------------|----------------------------------------------|
 --||---------------------------|----------------------------------------------|
 --||---------------------------|----------------------------------------------|
 --||---------------------------|--12------------------------------------------|
 --||--1---1-1---1-1-1-1-1-1----|-------11-------------------------------------|
 --||--0---0-0---0-0-0-0-0-0----|--------------4----5--4--3--4-----------------|
 - - - - - - - - - Tremolo Picking
 --||---------------------------------------------------------||---------------|
 --||---------------------------------------------------------||---------------|
 --||--11--12-11---9-11--12--9-11---8--11--12---14---16-------||---------------|
 --||---x---x--x---x--x---x--x--x---x---x---x----x----x-------||---------------|
 --||---9--10--9---7--9--10--7--9---6---9--10---12---14-------||---------------|
 --||---------------------------------------------------------||---------------|

 


 Tremolo Picking


 


 

 
 --||---------------------------------------------------------||---------------|
 --||---------------------------------------------------------||---------------|
 --||---------------------------------------------------------||---------------|
 --||-------------------------x4------------------------------||---------------|
 --||--1--1-1--1-1-1-1-1-1------------------------------------||---------------|
 --||--0--0-0--0-0-0-0-0-0------------------------------------||---------------|
 - - - - - - - - -
 --||-----------------------------------------------------------||-------------|
 --||-----------------------------------------------------------||-------------|
 --||-----------------------------------------------------------||-------------|
 --||-----------------------------------------------------------||-------------|
 --||------------------------------9-9-9-101010--9-9-9-101010---||-------------|
 --||--0-0-0--0-0-0--0-0-0--0-0-0--0-0-0--0-0-0--0-0-0--0-0-0---||-------------|
 - - - - - - - - - - - - - - - - - - - - - - - -
 --||--------------------------------------------------------------------------|
 --||--------------------------------------------------------------------------|
 --||----------------/6--------------------------/6------------------/6--------|
 --||-----------------x---------------------------x-------------------x--------|
 --||-2--2-2-2-2-2---/4--------------------------/4----2--2-2-2-2-2--/4--------|
 --||-0--0-0-0-0-0---------3-3-3--2-2-2--1-1-0---------0--0-0-0-0-0-------3-3--|
 - - - - - - - - - - - - - - - - - - - - - - -
 ------------------------------------------------------------------------------|
 ------------------------------------------------------------------------------|
 ---------------/6-------------------------------------------------------------|
 ----------------x----------------/9-------------------------/9----------------|
 ---------------/4---2--2-2-2-2---/9-------------------------/9---2--2-2-2-2---|
 -3-2-2-2-1-1-0------0--0-0-0-0---/9----3-3-3--2-2-2--1-1-0--/9---0--0-0-0-0---|
 - - - - - - - - - - - - - - - - - - - - - - - - - -
 ------------------------------||----------------------------------------------|
 ------------------------------||----------------------------------------------|
 ------------------------------||----------------------------------------------|
 -/9--------------------/9-----||----------------------------------------------|
 -/9--------------------/9-----||----------------------------------------------|
 -/9-3-3-3-2-2-2-1-1-0--/9-----||----------------------------------------------|
 - - - - - - - - -

 


 


 (Guitar I)


 

 
 --||--------------------------------------------------------------------------|
 --||--------------------------------------------------------------------------|
 --||--------------------------------------------------------------------------|
 --||--2--5--5----------2--4--4----------2--5--5---7--7---9--9--10---2---5--5--|
 --||--2--x--x----------2--x--x----------2--x--x---x--x---x--x---x---2---x--x--|
 --||--0--3--3--0-0-0-0-0--2--2--0-0-0-0-0--3--3---5--5---7--7---8---0---3--3--|
 - - - - - - - -
 ---------------------------------------------------------------||-------------|
 ---------------------------------------------------------------||-------------|
 ----------------------------------------------------------x2---||-------------|
 ---------2--4--4----------2---4--4---5--5---2--2---------------||-------------|
 ---------2--x--x----------2---x--x---x--x---2--2---------------||-------------|
 -0-0-0-0-0--2--2--0-0-0-0-0---2--2---3--3---0--0---------------||-------------|
 - - - - - - - -

 


 


 (Guitar II)


 

 
 -||---------------------------------------------------------------------------|
 -||---------------------------------------------------------------------------|
 -||---------------------------------------------------------------------------|
 -||---------------------------------------------------------------------------|
 -||-7-10-10----------7--9--9----------7-10-10-12-12-14-14-15---7-10-10--------|
 -||-0--0--0--0-0-0-0-0--0--0--0-0-0-0-0--0--0--0--0--0--0--0---0--0--0--0-0-0-|
 - - - - - - - - - - -
 ------------------------------------------------------||----------------------|
 ------------------------------------------------------||----------------------|
 ------------------------------------------------------||----------------------|
 ------------------------------------------------x2----||----------------------|
 ---7--9--9----------7--10-10--9--9--7--7--6-----------||----------------------|
 -0-0--0--0--0-0-0-0-0---0--0--0--0--0--0--0-----------||----------------------|

 


 [-] [-] [-] [-] [-]  


 Beat your feat on the ground now...


 


 

 
 --||--------------------------------------------------------------------------|
 --||--------------------------------------------------------------------------|
 --||--------------------------------------------------------------------------|
 --||--------------------------------------------------------------------------|
 --||-7-10-10--7--7--9--9--7--7-10-10-12-14-15-12-14---7-10-10--7--7--9--9--7--|
 --||-0--0--0--0--0--0--0--0--0--0--0--0--0--0--0--0---0--0--0--0--0--0--0--0--|
 - - - - - - - - - - - - - - - - - - - - - - - -

 


 (Tripler chaque note comme pour l'intro.


 Je l ai pas mis autrement ca aurait ete incomprehensible)


 


 

 
 ------------------------------------||----------------------------------------|
 ------------------------------------||----------------------------------------|
 -------------------------------x3---||----------------------------------------|
 ------------------------------------||----------------------------------------|
 -7-10-10--9--9--7--7--6--6----------||----------------------------------------|
 -0--0--0--0--0--0--0--0--0----------||----------------------------------------|
 - - - - - - - - -


Important: The song above is NOT stored on the Chordie server. The original song is hosted at www.guitaretab.com. Chordie works as a search engine and provides on-the-fly formatting. Chordie does not index songs against artists'/composers' will. To remove this song please click here.

This song is displayed as text-only. Transposing and tuning is only available for chordpro-songs.
Rate #2 of 5 versions

Jango Player

Login - add to songbook

SHARE PAGE  



You need to log in to post comments