Guitar Tabs, Chords and Lyrics
Server problems seems to be fixed. Chordie has been experiencing problems with songs disappearing. These issues now seems to be fixed, but still verifying the fix. If you find anything strange, please email admin@chordie.com.


Explosia   Gojira

 
 -||---------------------------------------------|--x3-------------------------|
 -||---------------------------------------------|-----------------------------|
 -||---------------------------------------------|-----------------------------|
 -||---------------------------------------------|-----------------------------|
 -||----------------0------1---2------2/3/2------|-----------------------------|
 -||---3--2--1--0---0---0--1---2---0--2/3/2------|-----------------------------|
 - - - - - -

 


 Guitar II


 

 
 -||---------------------x/----------------------|--x4-------------------------|
 -||---------------------x/----------------------|-----------------------------|
 -||---------------------x/----------------------|-----------------------------|
 -||---------------------x/----------------------|-----------------------------|
 -||----------------0----x/------------2/3/2-----|-----------------------------|
 -||---3--2--1--0---0----x/---------0--2/3/2-----|-----------------------------|

 


 [-] [-] [-] [-] [-]  


 

 
 ------------------------------------------------------------------------------|
 ------------------------------------------------------------------------------|
 ------------------------------------------------------------------------------|
 ------------------------------------------------------------------------------|
 ---------------0------1---2------2/3/2---1-1-1-1-1-----1-1-1-1-1-----1-1-1-1--|
 ---3--2--1--0--0---0--1---2---0--2/3/2---2-2-2-2-2--0--2-2-2-2-2--0--2-2-2-2--|
 - - - - - - - -
 -----||---x2------------------------------------------------------------------|
 -----||-----------------------------------------------------------------------|
 -----||-----------------------------------------------------------------------|
 -----||-----------------------------------------------------------------------|
 -1---||-----------------------------------------------------------------------|
 -2---||-----------------------------------------------------------------------|

 


 


 GO !!


 

 
 -||---------------------------------------------------------------------------|
 -||---------------------------------------------------------------------------|
 -||---------------------------------------------------------------------------|
 -||---------------------------------------------------------------------------|
 -||---------------------------------------------------------------------------|
 -||--0-0-0-0-0-0-0-0-0--0---0-0-0-0-0-0-0-0-0--0---0-0-0-0-0-0-0-0-0---0------|
 - - - - - - - - - - - - - - - - - - - - - - - - - - - - - - -
 --------------------------------------------||---------------------------------|
 --------------------------------------------||---------------------------------|
 --------------------------------------------||---------------------------------|
 --------------------------------------------||---------------------------------|
 --------------------------------------------||---------------------------------|
 -0-0-0-0-0-0-0-0-0-0-0-0-0-0-0-0-0-0-0-0--0-||---------------------------------|
 - - - - - - - - - - - - - - - - - - - - -
 -||------------------------------------------------||-------------------------|
 -||------------------------------------------------||-------------------------|
 -||----------------------------7-7-7-------7-7-7---||-------------------------|
 -||------------------7-7-7-7-7-------7-7-7---------||-------------------------|
 -||------------------------------------------------||-------------------------|
 -||--0-0-0-0-0-0-0---------------------------------||-------------------------|
 P.M - - - - - - - N.H - - - - - - - - - - - - -

 


 


 Guitar I


 

 
 -||---------------------------------------------|--x3-------------------------|
 -||---------------------------------------------|-----------------------------|
 -||---------------------------------------------|-----------------------------|
 -||---------------------------------------------|-----------------------------|
 -||----------------0------1---2------2/3/2------|-----------------------------|
 -||---3--2--1--0---0---0--1---2---0--2/3/2------|-----------------------------|
 - - - - - -

 


 Guitar II


 

 
 -||---------------------x/----------------------|--x4-------------------------|
 -||---------------------x/----------------------|-----------------------------|
 -||---------------------x/----------------------|-----------------------------|
 -||---------------------x/----------------------|-----------------------------|
 -||----------------0----x/------------2/3/2-----|-----------------------------|
 -||---3--2--1--0---0----x/---------0--2/3/2-----|-----------------------------|

 


 [-] [-] [-] [-] [-]  


 

 
 ------------------------------------------------------------------------------|
 ------------------------------------------------------------------------------|
 ------------------------------------------------------------------------------|
 ------------------------------------------------------------------------------|
 ---------------0------1---2------2/3/2---1-1-1-1-1-----1-1-1-1-1-----1-1-1-1--|
 ---3--2--1--0--0---0--1---2---0--2/3/2---2-2-2-2-2--0--2-2-2-2-2--0--2-2-2-2--|
 - - - - - - - -
 -----||-x2--------------------------------------------------------------------|
 -----||-----------------------------------------------------------------------|
 -----||-----------------------------------------------------------------------|
 -----||-----------------------------------------------------------------------|
 -1---||-----------------------------------------------------------------------|
 -2---||-----------------------------------------------------------------------|
 -||------------------------------------------------||-------------------------|
 -||------------------------------------------------||-------------------------|
 -||----------------------------7-7-7-------7-7-7---||-------------------------|
 -||------------------7-7-7-7-7-------7-7-7---------||-------------------------|
 -||------------------------------------------------||-------------------------|
 -||--0-0-0-0-0-0-0---------------------------------||-------------------------|
 P.M - - - - - - - N.H - - - - - - - - - - - - -
 -||---------------------------------------------------------------------------|
 -||---------------------------------------------------------------------------|
 -||---------------------------------------------------------------------------|
 -||---------------------------------------------------------------------------|
 -||---------------------------------------------------------------------------|
 -||--0-0-0-0-0-0-0-0-0--0---0-0-0-0-0-0-0-0-0--0---0-0-0-0-0-0-0-0-0---0------|
 - - - - - - - - - - - - - - - - - - - - - - - - - - - - - -
 --------------------------------------------||---------------------------------|
 --------------------------------------------||---------------------------------|
 --------------------------------------------||---------------------------------|
 --------------------------------------------||---------------------------------|
 --------------------------------------------||---------------------------------|
 -0-0-0-0-0-0-0-0-0-0-0-0-0-0-0-0-0-0-0-0--0-||---------------------------------|
 - - - - - - - - - - - - - - - - - - - - -
 -||---------------------------------------------|--x3-------------------------|
 -||---------------------------------------------|-----------------------------|
 -||---------------------------------------------|-----------------------------|
 -||---------------------------------------------|-----------------------------|
 -||----------------0------1---2------2/3/2------|-----------------------------|
 -||---3--2--1--0---0---0--1---2---0--2/3/2------|-----------------------------|
 - - - - - -
 ------------------------------------------------------------------------------|
 ------------------------------------------------------------------------------|
 ------------------------------------------------------------------------------|
 ------------------------------------------------------------------------------|
 ---------------0------1---2------2/3/2---1-1-1-1-1-----1-1-1-1-1-----1-1-1-1--|
 ---3--2--1--0--0---0--1---2---0--2/3/2---2-2-2-2-2--0--2-2-2-2-2--0--2-2-2-2--|
 - - - - - - - -
 -------------------------------------------||---------------------------------|
 -------------------------------------------||---------------------------------|
 -------------------------------------------||---------------------------------|
 -------------------------------------------||---------------------------------|
 -1-1-1-1-1-1-1-1-1-1-1-1-1-1-1-1-1-1-1-1---||---------------------------------|
 -2-2-2-2-2-2-2-2-2-2-2-2-2-2-2-2-2-2-2-2---||---------------------------------|
 -||----------------------------------------------------------------------|x2--|
 -||----------------------------------------------------------------------|----|
 -||----------------------------------------------------------------------|----|
 -||----------------------------------------------------------------------|----|
 -||------1---------------0-------------1------3-------0------------------|----|
 -||--3-------------3--1------------3--------------1----------------------|----|

 


 Tremolo Picking


 


 

 
 -|-----------------------------------------------------------------------|x4--|
 -|-----------------------------------------------------------------------|----|
 -|-----------------------------------------------------------------------|----|
 -|------1-----------------0-------------1---3--------0-------------------|----|
 -|--3-------------3---1--------------3-----------1-----------------------|----|
 -|-----------------------------------------------------------------------|----|

 


 Tremolo picking


 


 

 
 -|-----------------------------------------------------------------------|----|
 -|-----------------------------------------------------------------------|----|
 -|-----------------------------------------------------------------------|----|
 -|-----------------------------------------------------------------------|----|
 -|--0-0-0-0-0-0-0-0-0-0-0-0-0-0-0-0-0-0-0-0-0-0-0-0-0-0-0-0-0-0-0-0-0-0--|----|
 -|-----------------------------------------------------------------------|----|
 -|-----------------------------------------------------------------------|x4--|
 -|-----------------------------------------------------------------------|----|
 -|-----------------------------------------------------------------------|----|
 -|------1-----------------0-------------1---3--------0-------------------|----|
 -|--3-------------3---1--------------3-----------1-----------------------|----|
 -|-----------------------------------------------------------------------|----|
 -----------------||-----------------------------------------------------------|
 -----------------||-----------------------------------------------------------|
 -----------------||-----------------------------------------------------------|
 ----------0------||-----------------------------------------------------------|
 ------1----------||-----------------------------------------------------------|
 ---3-------------||-----------------------------------------------------------|
 -||----------------------------------------------------|----------------------|
 -||----------------------------------------------------|----------------------|
 -||----------------------------------------------------|----------------------|
 -||----------------------------------------------------|----------------------|
 -||--1-1-1-1-1-1-1-1--1-1---1-1-1-1-1-1-1-1--1-1-------|----------------------|
 -||--3-3-3-3-3-3-3-3--3-3---3-3-3-3-3-3-3-3--3-3-------|----------------------|
 - - - - - - - - - - - - - - - - - - - -
 -|------------------------------------------------------||--------------------|
 -|------------------------------------------------------||--------------------|
 -|------------------------------------------------------||--------------------|
 -|----------0--------0-------------0--------------------||--------------------|
 -|------1--------3-------------1-----------0------------||--------------------|
 -|---3----------------------3---------------------------||--------------------|


Important: The song above is NOT stored on the Chordie server. The original song is hosted at www.guitaretab.com. Chordie works as a search engine and provides on-the-fly formatting. Chordie does not index songs against artists'/composers' will. To remove this song please click here.

This song is displayed as text-only. Transposing and tuning is only available for chordpro-songs.
Rate #1 of 3 versions

Jango Player

Login - add to songbook

SHARE PAGE  




You need to log in to post comments