Guitar Tabs, Chords and Lyrics
Server problems seems to be fixed. Chordie has been experiencing problems with songs disappearing. These issues now seems to be fixed, but still verifying the fix. If you find anything strange, please email admin@chordie.com.


The Axe   Gojira

 
 -||----------------------------------------------------------------------||---|
 -||----------------------------------------------------------------------||---|
 -||----------------------------------------------------------------------||---|
 -||----------------------------------------------------------------------||---|
 -||------------/13----------/13---12--------/13--12----------------------||---|
 -||--3------------------3---------------3--------------13----14----------||---|

 


 Tremolo Picking


 


 

 
 -||---------------------------------------------------------------------------|
 -||---------------------------------------------------------------------------|
 -||---------------------------------------------------------------------------|
 -||---------------------------------------------------------------------------|
 -||--1-1-1--1-1-1--0-0-0--0-0-0--0-0-0--0-0-0--0-0-0--0-0-0--1-1-1--1-1-1-----|
 -||--3-3-3--3-3-3--1-1-1--1-1-1--1-1-1--1-1-1--1-1-1--1-1-1--3-3-3--3-3-3-----|
 PM - - - - - - - - - - - - - - - - - - - - - - - - - - - - - -
 ------------------------------------------------------------------------------|
 ------------------------------------------------------------------------------|
 ------------------------------------------------------------------------------|
 ------------------------------------------------------------------------------|
 -0-0-0--0-0-0--0-0-0--0-0-0--0-0-0--0-0-0--1-1-1--1-1-1--0-0-0--0-0-0--0-0-0--|
 -1-1-1--1-1-1--1-1-1--1-1-1--1-1-1--1-1-1--3-3-3--3-3-3--1-1-1--1-1-1--1-1-1--|
 - - - - - - - - - - - - - - - - - - - - - - - - - - - - - - - - -
 ------------------------------------------------------------------------0--|-|
 ------------------------------------------------------------------------0--|-|
 ------------------------------------------------------------------------0--|-|
 ---------------------------------------------------------------------------|-|
 -0-0-0--0-0-0--0-0-0--1-1-1--1-1-1--0-0-0--0-0-0---------------------------|-|
 -1-1-1--1-1-1--1-1-1--3-3-3--3-3-3--1-1-1--1-1-1---x-x-x-x-x-x-x-x-x-x-----|-|
 - - - - - - - - - - - - - - - - - - - - - N.H - - - - - - - - -
 -||------------------------------------------------------------------------|-|
 -||------------------------------------------------------------------------|-|
 -||------------------------------------------------------------------------|-|
 -||--8-------------7-------------8-----------------------------------------|-|
 -||------------------------------------------------------------------------|-|
 -||------6--8--6-------5--6--5-------6--8--6--5--6--10---------------------|-|

 


 Tremolo picking


 


 


 

 
 -||----------------------------------------------------------------------||---|
 -||----------------------------------------------------------------------||---|
 -||----------------------------------------------------------------------||---|
 -||----------------------------------------------------------------------||---|
 -||------------/13----------/13---12--------/13--12----------------------||---|
 -||--3------------------3---------------3--------------13----14----------||---|

 


 Tremolo Picking


 


 

 
 -||---------------------------------------------------------------------------|
 -||---------------------------------------------------------------------------|
 -||---------------------------------------------------------------------------|
 -||---------------------------------------------------------------------------|
 -||--1-1-1--1-1-1--0-0-0--0-0-0--0-0-0--0-0-0--0-0-0--0-0-0--1-1-1--1-1-1-----|
 -||--3-3-3--3-3-3--1-1-1--1-1-1--1-1-1--1-1-1--1-1-1--1-1-1--3-3-3--3-3-3-----|
 PM - - - - - - - - - - - - - - - - - - - - - - - - - - - - - -
 ------------------------------------------------------------------------------|
 ------------------------------------------------------------------------------|
 ------------------------------------------------------------------------------|
 ------------------------------------------------------------------------------|
 -0-0-0--0-0-0--0-0-0--0-0-0--0-0-0--0-0-0--1-1-1--1-1-1--0-0-0--0-0-0--0-0-0--|
 -1-1-1--1-1-1--1-1-1--1-1-1--1-1-1--1-1-1--3-3-3--3-3-3--1-1-1--1-1-1--1-1-1--|
 - - - - - - - - - - - - - - - - - - - - - - - - - - - - - - - - -
 ------------------------------------------------------------------------0--|-|
 ------------------------------------------------------------------------0--|-|
 ------------------------------------------------------------------------0--|-|
 ---------------------------------------------------------------------------|-|
 -0-0-0--0-0-0--0-0-0--1-1-1--1-1-1--0-0-0--0-0-0---------------------------|-|
 -1-1-1--1-1-1--1-1-1--3-3-3--3-3-3--1-1-1--1-1-1---x-x-x-x-x-x-x-x-x-x-----|-|
 - - - - - - - - - - - - - - - - - - - - - N.H - - - - - - - - -
 -||------------------------------------------------------------------------|-|
 -||------------------------------------------------------------------------|-|
 -||------------------------------------------------------------------------|-|
 -||--8-------------7-------------8-----------------------------------------|-|
 -||------------------------------------------------------------------------|-|
 -||------6--8--6-------5--6--5-------6--8--6--5--6--10---------------------|-|

 


 Tremolo picking


 


 

 
 -||---------------------10----10---------------------10--11----------------|-|
 -||--11------11-------------------11------11-------------------------------|-|
 -||------14------14-14----------------14------14-14------------------------|-|
 -||------------------------------------------------------------------------|-|
 -||------------------------------------------------------------------------|-|
 -||------------------------------------------------------------------------|-|
 -||---------------------------------------------------------------------------|
 -||---------------------------------------------------------------------------|
 -||---------------------------------------------------------------------------|
 -||---------------7-7-7-7-7-7-7-7----------------7-7-7-7-7-7-7-7--------------|
 -||--1------------------------------1------------------------------1----------|
 -||--3--3--3--3---------------------3--3--3--3---------------------3--3--3--3-|
 - - - N.H - - - - - - - - - - - - -
 ------------------------------------------------------------------------------|
 ------------------------------------------------------------------------------|
 ------------------------------------------------------------------------------|
 --7-7-7-7-7-7-7-7---------------------------------------7-7-7-7-7-7-7-7-------|
 --------------------1--------3--------0-----1----------------------------1----|
 --------------------3--3--3--3--3--3--1--1--3--3--3--3-------------------3----|
 - - - - - - - -
 ------------------------------------------------------------------------------|
 ------------------------------------------------------------------------------|
 ------------------------------------------------------------------------------|
 ----------7-7-7-7-7-7-7-7---------------7-7-7-7-7-7-7-7-----------------------|
 ---------------------------1------------------------------1--------3--------1-|
 -3--3--3-------------------3--3--3--3---------------------3--3--3--3--3--3--0-|
 - - - - - - - - - -
 ----------------------------||------------------------------------------------|
 ----------------------------||------------------------------------------------|
 ----------------------------||------------------------------------------------|
 ----------------------------||------------------------------------------------|
 --------1---------1---1-1---||------------------------------------------------|
 -1--1---0---1--1--0---0-0---||------------------------------------------------|

 


 [-] [-]  


 

 
 -|-------------------------------------------------------------------------|--|
 -|-------------------------------------------------------------------------|--|
 -|-------------------------------------------------------------------------|--|
 -|---8--------------8------------------------------------------------------|--|
 -|------12-----12-------10-------------------------------------------------|--|
 -|-------------------------------------------------------------------------|--|
 -||---------------------------------------------------------------------------|
 -||---------------------------------------------------------------------------|
 -||---------------------------------------------------------------------------|
 -||---------------7-7-7-7-7-7-7-7----------------7-7-7-7-7-7-7-7--------------|
 -||--1------------------------------1------------------------------1----------|
 -||--3--3--3--3---------------------3--3--3--3---------------------3--3--3--3-|
 - - - N.H - - - - - - - - - - - - -
 ------------------------------------------------------------------------------|
 ------------------------------------------------------------------------------|
 ------------------------------------------------------------------------------|
 --7-7-7-7-7-7-7-7---------------------------------------7-7-7-7-7-7-7-7-------|
 --------------------1--------3--------0-----1----------------------------1----|
 --------------------3--3--3--3--3--3--1--1--3--3--3--3-------------------3----|
 - - - - - - - -
 ------------------------------------------------------------------------------|
 ------------------------------------------------------------------------------|
 ------------------------------------------------------------------------------|
 ----------7-7-7-7-7-7-7-7---------------7-7-7-7-7-7-7-7-----------------------|
 ---------------------------1------------------------------1--------3--------1-|
 -3--3--3-------------------3--3--3--3---------------------3--3--3--3--3--3--0-|
 - - - - - - - - - -
 ----------------------------||------------------------------------------------|
 ----------------------------||------------------------------------------------|
 ----------------------------||------------------------------------------------|
 ----------------------------||------------------------------------------------|
 --------1---------1---1-1---||------------------------------------------------|
 -1--1---0---1--1--0---0-0---||------------------------------------------------|


Important: The song above is NOT stored on the Chordie server. The original song is hosted at www.guitaretab.com. Chordie works as a search engine and provides on-the-fly formatting. Chordie does not index songs against artists'/composers' will. To remove this song please click here.

This song is displayed as text-only. Transposing and tuning is only available for chordpro-songs.
Rate #1 of 3 versions

Jango Player

Login - add to songbook

SHARE PAGE  



You need to log in to post comments