Guitar Tabs, Chords and Lyrics
Login is temporarily disabled for some users. Do not panic. Will be back in an hour or two. DO NOT REREGISTER!!


In the Wilderness   Gojira

 
 ----------------------------------------------------------------------------|
 ----------------------------------------------------------------------------|
 ----------------------------------------------------------------------------|
 ----------------------------------------------------------------------------|
 -1-1-1--2-2-2--3-3-3--2-2-2--1-1-1--2-2-2--3-3-3-3-3-3-3-3-3----------------|
 -1-1-1--2-2-2--3-3-3--2-2-2--1-1-1--2-2-2-----------------------------------|
 - - - - - - - - - - - - - - - - - -
 ----------------------------------------------------------------------------|
 ----------------------------------------------------------------------------|
 ----------------------------------------------------------------------------|
 ----------------------------------------------------------------------------|
 ----------------------------------------3-3-3-3-3-3-3-3-3-------------------|
 -1-2-3-2-1-2-1-2-3-2-1-2-1-2-3-2-1-2-1--------------------------------------|
 - - - - - - - - - - - - - - - - - - -
 ----------------------------------------------------------------------------|
 ----------------------------------------------------------------------------|
 ----------------------------------------------------------------------------|
 ----------------------------------------------------------------------------|
 -1-1-1--2-2-2--3-3-3--2-2-2--1-1-1--2-2-2--3-3-3-3-3-3-3-3-3----------------|
 -1-1-1--2-2-2--3-3-3--2-2-2--1-1-1--2-2-2-----------------------------------|
 - - - - - - - - - - - - - - - - - -
 ----------------------------------------------------------------------------|
 ----------------------------------------------------------------------------|
 ----------------------------------------------------------------------------|
 ----------------------------------------------------------------------------|
 ----------------------------------------3-3-3-3-3-3-3-3-3-------------------|
 -1-2-3-2-1-2-1-2-3-2-1-2-1-2-3-2-1-2-1--------------------------------------|
 - - - - - - - - - - - - - - - - - - -
 ----------------------------------------------------------------------------|
 ----------------------------------------------------------------------------|
 ----------------------------------------------------------------------------|
 --5-5-5-5-5-5--4-4-4-4-4--5-5-5-5-5-5--7-7--8-8-8-8-8-8-8--9-9-9-9-9-9-9----|
 --x-x-x-x-x-x--x-x-x-x-x--x-x-x-x-x-x--x-x--x-x-x-x-x-x-x--x-x-x-x-x-x-x----|
 --3-3-3-3-3-3--2-2-2-2-2--3-3-3-3-3-3--5-5--6-6-6-6-6-6-6--7-7-7-7-7-7-7----|
 -------------------------------------|-------------------------------------|
 -------------------------------------|-------------------------------------|
 -------------------------------------|-------------------------------------|
 -----5--5-----5--5-----5/6--5--4-----|-----5--5-----5--5-----6--5--4-------|
 -----x--x-----x--x-----x-x--x--x-----|-----x--x-----x--x-----x--x--x-------|
 --0--3--3--0--3--3--0--3/4--3--2-----|--0--3--3--0--3--3--0--4--3--2-------|
 - - - - - -
 ----------------------x-----------------------------|------------------------|
 ----------------------x-----------------------------|------------------------|
 ----------------------x-----------------------------|------------------------|
 ----------------------x---------------3--3-----3----|--2-2-2-2-2-2-2-2-2-2---|
 -0-0-0-0-0-0-0-0-0-0--x--0-0-0-0-0-0--1--1-----1----|--2-2-2-2-2-2-2-2-2-2---|
 -0-0-0-0-0-0-0-0-0-0-----0-0-0-0-0-0--0--0--0--0----|--0-0-0-0-0-0-0-0-0-0---|
 - - - - - - - - - - A.H - - - - - - - - - - - - - - - - -

 


 


 Guitar I


 

 
 -----------------------------------------------------------------------------|
 -----------------------------------------------------------------------------|
 -----------------------------------------------------------------------------|
 ----3--3-----3--3-----3--3---------------------------------------------------|
 ----x--x-----x--x-----x--x---------------------------------------------------|
 -0--1--1--0--1--1--0--1--1---------------------------------------------------|

 


 [-] [-] [-]  


 Guitar II


 

 
 ----------------------------------------------------------------------------|
 ----------------------------------------------------------------------------|
 --5-5-5-5-5-5-5-5-5-5-5-5-5-5-5-5-5-5-5-5-5-5-5-5-5-5-5-5-5-----------------|
 --x-x-x-x-x-x-x-x-x-x-x-x-x-x-x-x-x-x-x-x-x-x-x-x-x-x-x-x-x-----------------|
 --3-3-3-3-3-3-3-3-3-3-3-3-3-3-3-3-3-3-3-3-3-3-3-3-3-3-3-3-3-----------------|
 ----------------------------------------------------------------------------|
 ----------------------------------------------------------------------------|
 ----------------------------------------------------------------------------|
 -----------------------------------17-17-17-17-17-17-17--14-14-14-14--16-16-|
 ------------------------------------x--x--x--x--x--x--x---x--x--x--x---x--x-|
 -----------------------------------15-15-15-15-15-15-15--12-12-12-12--14-14-|
 --1-2-3-2-1-2-1-2-3-2-1-2-3-2-1-2-------------------------------------------|
 - - - - - - - - - - - - - - - -
 ----------------------------------------------------------------------------|
 ----------------------------------------------------------------------------|
 -16-16-16--13-13-13-13-13-13-13---------------------------------------------|
 --x--x--x---x--x--x--x--x--x--x---------------------------------------------|
 -14-14-14--11-11-11-11-11-11-11---------------------------------------------|
 ----------------------------------------------------------------------------|


Important: The song above is NOT stored on the Chordie server. The original song is hosted at www.guitaretab.com. Chordie works as a search engine and provides on-the-fly formatting. Chordie does not index songs against artists'/composers' will. To remove this song please click here.

This song is displayed as text-only. Transposing and tuning is only available for chordpro-songs.
Rate #1 of 2 versions

Login - add to songbook

SHARE PAGE  




You need to log in to post comments