Guitar Tabs, Chords and Lyrics
Server problems seems to be fixed. Chordie has been experiencing problems with songs disappearing. These issues now seems to be fixed, but still verifying the fix. If you find anything strange, please email admin@chordie.com.


Clone   Gojira

 
 ---------------------------------------------------------------------------|
 ---------------------------------------------------------------------------|
 ---------------------------------------------------------------------------|
 ----------------------------------10p7-9p7-8p7-10p7-9p7-8p7-10p7-8p7-10p7--|
 --8-7-6-8-7-6-8-6-8-7-6-8-7-6-8--------------------------------------------|
 --8-7-6-8-7-6-8-6-8-7-6-8-7-6-8--------------------------------------------|
 PM - - - - - - - - - - - - - - (Without the pick)
 ---------------------------------------------------------------------------|
 ---------------------------------------------------------------------------|
 ---------------------------------------------------------------------------|
 -9p7-8p7-10p7-9p7-8p7-10p7-------------------------------------------------|
 ---------------------------------------------------------------------------|
 ---------------------------------------------------------------------------|
 ---------------------------------------------------------------------------|
 ---------------------------------------------------------------------------|
 ---------------------------------------------------------------------------|
 ----------------------------------9p6-8p6-7p6-9p6-8p6-7p6-9p6-7p6-9p6-8p6--|
 --8-7-6-8-7-6-8-6-8-7-6-8-7-6-8--------------------------------------------|
 --8-7-6-8-7-6-8-6-8-7-6-8-7-6-8--------------------------------------------|
 - - - - - - - - - - - - - - -
 ---------------------------------------------------------------------------|
 ---------------------------------------------------------------------------|
 ---------------------------------------------------------------------------|
 -7p6-9p6-8p6-7p6-9p6------------------------------------9p6-8p6-7p6-9p6-8p6|
 -------------------------8-7-6-8-7-6-8-6-8-7-6-8-7-6-8---------------------|
 -------------------------8-7-6-8-7-6-8-6-8-7-6-8-7-6-8---------------------|
 - - - - - - - - - - - - - - -
 ---------------------------------------------------------------------------|
 ---------------------------------------------------------------------------|
 ---------------------------------------------------------------------------|
 -7p6-9p6-7p6-10p7-9p7-8p7-10p7-9p7-8p7-10p7--------------------------------|
 ----------------------------------------------8-7-6-8-7-6-8-6-8-7-6-8-7-6-8|
 ----------------------------------------------8-7-6-8-7-6-8-6-8-7-6-8-7-6-8|
 - - - - - - - - - - - - - - -
 ---------------------|-----------------------------------------------------|
 ---------------------|-----------------------------------------------------|
 ---------------------|-----------------------------------------------------|
 -6-------6--7--2-----|-----------------------------------------------------|
 -6-------6--7--2-----|---1-1-1-1-1-1-1-1-1-1-1-1-1-1-1-1-------------------|
 -4-------4--5--0-----|---1-1-1-1-1-1-1-1-1-1-1-1-1-1-1-1--3-2-1-3-2-1-3-0--|
 - - - - - - - - - - - - - - - - - - - - - - - -
 --------------------------------------------------------|------------------|
 --------------------------------------------------------|------------------|
 ----------------------------------------------------x2--|------------------|
 --------------------------------------------------------|------------------|
 -1-1-1-1-1-1-1-1-1-1-1-1-1-1-1-1------------------------|------------------|
 -1-1-1-1-1-1-1-1-1-1-1-1-1-1-1-1--3-2-1-3-2-1-3-0-------|------------------|
 - - - - - - - - - - - - - - - - - - - - - - - -
 -------------------------------------|-------------------------------------|
 -------------------------------------|-------------------------------------|
 -------------------------------------|-------------------------------------|
 -3----4----2----------3----4----2----|-----3----4----2---------------------|
 -3----4----2----------3----4----2----|-----3----4----2---2-2-2-2-2--2--2-2-|
 -1----2----0----------1----2----0----|-----1----2----0---0-0-0-0-0--0--0-0-|
 - - - - - - - - -
 -----------------------------|-----------------------------------------------|
 -----------------------------|-----------------------------------------------|
 ------------------------x3---|-----------------------------------------------|
 -----------------------------|-----------------------------------------------|
 -2-2--2--2-2-2-2-2--2--------|--1-1-1-1-1-1-1-1-1-1-1-1-1-1-1-1--------------|
 -0-0--0--0-0-0-0-0--0--------|--1-1-1-1-1-1-1-1-1-1-1-1-1-1-1-1--3-2-1-3-2-1-|
 - - - - - - - - - - - - - - - - - - - - - - - - - - - - - - -
 ---------------------------------------------------|-------------------------|
 ---------------------------------------------------|-------------------------|
 ---------------------------------------------------|-------------------------|
 ---------------------------------------------------|-------------------------|
 ------1-1-1-1-1-1-1-1-1-1-1-1-1-1-1-1--3-2-1-2-3---|-------------------------|
 -3-0--1-1-1-1-1-1-1-1-1-1-1-1-1-1-1-1--3-2-1-2-3---|-------------------------|
 - - - - - - - - - - - - - - - - - - - - - - -
 ---------------------------------------------------------------------------|
 ---------------------------------------------------------------------------|
 ---------------------------------------------------------------------------|
 --5-5-5-5-4--------------5-5-5-5-4-----------------------------------------|
 --3-3-3-3-2--------------3-3-3-3-2----------------x4-----------------------|
 --3-3-3-3-2--0-0-0--3b---3-3-3-3-2--0-0-0--3b------------------------------|
 - - - A.H - - - A.H
 ---------------------------------------------------------------------------|
 ---------------------------------------------------------------------------|
 --5-5-5-5-4-------------------------------------5-5-5-5-4------------------|
 --x-x-x-x-x--------------3-3-3-3-2--------------x-x-x-x-x-------------3-3-3|
 --3-3-3-3-2--------------1-1-1-1-2--------------3-3-3-3-2-------------1-1-1|
 -------------0-0-0--3b---1-1-1-1-0---0-0-0--3b-------------0-0-0--3b--1-1-1|
 - - - A.H A.H - - - A.H
 -----------------------------------------------------------------------------|
 -----------------------------------------------------------------------------|
 -----------------------------------------------------------------------------|
 -3-2--------3----------------------------------------------------------------|
 -1-2--------3----------------------------------------------------------------|
 -1-0--0--0--1----------------------------------------------------------------|

 


 [-] [-]  


 Guitar I (clean)


 

 
 ------3--------3---------3----------3----------3----------3---------3------|
 ----2---2----2----2----2----2-----2----2-----2----2-----2---2----2---2-----|
 --5-------5----------5---------5----------5----------5---------5--------5--|
 ---------------------------------------------------------------------------|
 ---------------------------------------------------------------------------|
 ---------------------------------------------------------------------------|

 


 


 Guitar II


 

 
 ---------------------------------------------------------------------------|
 ---------------------------------------------------------------------------|
 ---------------------------------------------------------------------------|
 -3----------------------------------------5-----------------------------3--|
 -3----------------------------------------3-----------------------------3--|
 -1----------------------------------------3-----------------------------1--|
 ---------------------------------------------------------------------------|
 ---------------------------------------------------------------------------|
 ---------------------------------------------------------------------------|
 ---------5---------5-----6-----5-------5---------5-----6-------------------|
 ---------3---------3-----4-----3-------5---------5-----6-------------------|
 -0-0--0--3--0-0-0--3--0--4--0--3--0-0--3--0-0-0--3--0--4--0--0--3b---------|
 - - - - - - - - - - - - - - - - A.H
 ---------------------------------------------------------------------------|
 ---------------------------------------------------------------------------|
 ---------------------------------------------------------------------------|
 ---------5---------5-----6-----5-------5---------5------------4------------|
 ---------3---------3-----4-----3-------3---------3------------4------------|
 -0-0--0--3--0-0-0--3--0--4--0--3--0-0--3--0-0-0--3--0--3b--0--2------------|
 - - - - - - - - - - - - - - A.H -
 --------------------------------------|--------------------------------------|
 --------------------------------------|--------------------------------------|
 --------------------------------------|--------------------------------------|
 --3----4----2----------3----4----2----|-----3----4----2----------------------|
 --3----4----2----------3----4----2----|-----3----4----2---2-2-2-2-2--2--2-2--|
 --1----2----0----------1----2----0----|-----1----2----0---0-0-0-0-0--0--0-0--|
 - - - - - - - - -
 -----------------------------|-----------------------------------------------|
 -----------------------------|-----------------------------------------------|
 -----------------------------|-----------------------------------------------|
 -----------------------------|-----------------------------------------------|
 -2-2--2--2-2-2-2-2--2--------|-----------------------------------------------|
 -0-0--0--0-0-0-0-0--0--------|-----------------------------------------------|
 - - - - - - - - -


Important: The song above is NOT stored on the Chordie server. The original song is hosted at www.guitaretab.com. Chordie works as a search engine and provides on-the-fly formatting. Chordie does not index songs against artists'/composers' will. To remove this song please click here.

This song is displayed as text-only. Transposing and tuning is only available for chordpro-songs.
Rate #2 of 2 versions

Jango Player

Login - add to songbook

SHARE PAGE  




You need to log in to post comments