Guitar Tabs, Chords and Lyrics
Server problems seems to be fixed. Chordie has been experiencing problems with songs disappearing. These issues now seems to be fixed, but still verifying the fix. If you find anything strange, please email admin@chordie.com.


Fire Is Everything   Gojira

 
 ----------------------------------------------------------------------------|
 ----------------------------------------------------------------------------|
 ----------------------------------------------------------------------------|
 ----------------------------------------------------------------------------|
 --3-3-3--1-1-1--3-3-3--1-1-1--3-3-3--1-1-1--3-3-3--1-1-1--3-3-3--1-1-1------|
 --3-3-3--1-1-1--3-3-3--1-1-1--3-3-3--1-1-1--3-3-3--1-1-1--3-3-3--1-1-1------|
 - - - - - - - - - - - - - - - - - - - - - - - - - - - - - -
 ----------------------------------------------------------------------------|
 ----------------------------------------------------------------------------|
 ----------------------------------------------------------------------------|
 ----------------------------------------------------------------------------|
 --3-3-3--1-1-1--3-3-3--1-1-1--3-3-3--1-1-1--3-3-3--1-1-1--3-3-3--1-1-1------|
 --3-3-3--1-1-1--3-3-3--1-1-1--3-3-3--1-1-1--3-3-3--1-1-1--3-3-3--1-1-1------|
 - - - - - - - - - - - - - - - - - - - - - - - - - - - - - -
 ----------------------------------------------0---------------------x-------|
 ----------------------------------------------0---------------------x-------|
 ----------------------------------------------0---------------------x-------|
 --2----2------2--2--2-----2----2-----2--2--2-----2----2----2--2--2-----2----|
 --2----2------2--2--2-----2----2-----2--2--2-----2----2----2--2--2-----2----|
 --0----0------0--0--0-----0----0-----0--0--0-----0----0----0--0--0-----0----|
 - - - - - - - - - - - - - - - -
 ----------------------------------------------------------------------------|
 ----------------------------------------------------------------------------|
 ----------------------------------------------------------------------------|
 --2-----2--2--2-------------------------------------------------------------|
 --2-----2--2--2-------------------------------------------------------------|
 --0-----0--0--0-------------------------------------------------------------|

 


 [-] [-] [-] [-]  


 

 
 ----------------------------------------------------------------------------|
 ----------------------------------------------------------------------------|
 ----------------------------------------------------------------------------|
 ----------------------------------------------------------------------------|
 --3-3-3--1-1-1--3-3-3--1-1-1--3-3-3--1-1-1--3-3-3--1-1-1--3-3-3--1-1-1------|
 --3-3-3--1-1-1--3-3-3--1-1-1--3-3-3--1-1-1--3-3-3--1-1-1--3-3-3--1-1-1------|
 - - - - - - - - - - - - - - - - - - - - - - - - - - - - - -
 ----------------------------------------------------------------------------|
 ----------------------------------------------------------------------------|
 ----------------------------------------------------------------------------|
 ----------------------------------------------------------------------------|
 --3-3-3--1-1-1--3-3-3--1-1-1--3-3-3--1-1-1--3-3-3--1-1-1--3-3-3--1-1-1------|
 --3-3-3--1-1-1--3-3-3--1-1-1--3-3-3--1-1-1--3-3-3--1-1-1--3-3-3--1-1-1------|
 - - - - - - - - - - - - - - - - - - - - - - - - - - - - - -
 ----------------------------------------------------------------------------|
 ----------------------------------------------------------------------------|
 ----------------------------------------------------------------------------|
 --/8/--------------/5/-/6/-/7/-/8/------------/5/-/6/-/7/-/8/---------------|
 ---x----------------x---x---x---x--------------x---x---x---x----------------|
 --/6/----0--1--2---/3/-/4/-/5/-/6/--0--1--2---/3/-/4/-/5/-/6/---------------|
 - - - - - -
 ----------------------------------------------------------------------------|
 ----------------------------------------------------------------------------|
 ----------------------------------------------------------------------------|
 ------------/5/-/6/-/7------------------------------------------------------|
 -------------x---x---x------------------------------------------------------|
 --0--1--2---/3/-/4/-/5------------------------------------------------------|

 


 [-] [-] [-]  


 The parts with the pull off are play only with the left hand.


 

 
 ----------------------------------------------------------------------------|
 ----------------------------------------------------------------------------|
 ----------------------------------------------------------------------------|
 ----------------------------------------------------------------------------|
 --0--12p0-12p0--12p0---12p0-12p0--12p0--11p0-11p0--11p0---11p0-11p0--11p0---|
 ----------------------------------------------------------------------------|
 ----------------------------------------------------------------------------|
 ----------------------------------------------------------------------------|
 ----------------------------------------------------------------------------|
 --------------------------------------0-10p0-10p0-10p0--11p0-11p0-11p0------|
 --12p0-12p0--12p0---12p0-12p0--12p0-----------------------------------------|
 ----------------------------------------------------------------------------|
 ----------------------------------------------------------------------------|
 ----------------------------------------------------------------------------|
 ----------------------------------------------------------------------------|
 --/8/--------------/5/-/6/-/7/-/8/------------/5/-/6/-/7/-/8/---------------|
 ---x----------------x---x---x---x--------------x---x---x---x----------------|
 --/6/----0--1--2---/3/-/4/-/5/-/6/--0--1--2---/3/-/4/-/5/-/6/---------------|
 - - - - - -
 ----------------------------------------------------------------------------|
 ----------------------------------------------------------------------------|
 ----------------------------------------------------------------------------|
 ------------/5/-/6/-/7------------------------------------------------------|
 -------------x---x---x------------------------------------------------------|
 --0--1--2---/3/-/4/-/5------------------------------------------------------|
 ----------------------------------------------0---------------------x-------|
 ----------------------------------------------0---------------------x-------|
 ----------------------------------------------0---------------------x-------|
 --2----2------2--2--2-----2----2-----2--2--2-----2----2----2--2--2-----2----|
 --2----2------2--2--2-----2----2-----2--2--2-----2----2----2--2--2-----2----|
 --0----0------0--0--0-----0----0-----0--0--0-----0----0----0--0--0-----0----|
 - - - - - - - - - - - - - - - -
 ----------------------------------------------------------------------------|
 ----------------------------------------------------------------------------|
 ----------------------------------------------------------------------------|
 --2-----2--2--2--2--2--2--2-------------------------------------------------|
 --2-----2--2--2--2--2--2--2-------------------------------------------------|
 --0-----0--0--0--0--0--0--0-------------------------------------------------|
 - - - - - - - -
 -----------------------------------------------------------------------------|
 -----------------------------------------------------------------------------|
 -----------------------------------------------------------------------------|
 -----------------------------------------------------------------------------|
 --2----2----2--2--5--5-----2----2----2----2----3----2--2---5--5---------2--2-|
 --3----2----3--2--6--5-----2----3----2----3----2----3--2---6--5--2-2-2--2--3-|

 


 [-] [-] [-] 


 

 
 ----------------------------------------------------------------------------|
 ----------------------------------------------------------------------------|
 ----------------------------------------------------------------------------|
 ----------------------------------------------------------------------------|
 -------2--2----2----2--2--5--5------2--2--2----3----2--2--5--3----2------2--|
 --2-2--2--3----2----3--2--6--5------3--3--3----2----3--2--6--3----2------3--|

 


 [-] [-]  


 

 
 -----------------------------------------------------------------------------|
 -----------------------------------------------------------------------------|
 -----------------------------------------------------------------------------|
 -----------------------------------------------------------------------------|
 -5--5------2----2----2----2----2----2--2---5--5---------2--2-------2--2----2-|
 -6--5------2----3----2----3----2----3--2---6--5--2-2-2--2--3--2-2--2--3----2-|

 


 [-] [-] [-] [-] [-] 


 

 
 ----------------------------------------------------------------------------|
 ----------------------------------------------------------------------------|
 ----------------------------------------------------------------------------|
 ----------------------------------------------------------------------------|
 --2--5--5-----2--2--2-------------------------------------------------------|
 --3--6--5-----3--3--3-------------------------------------------------------|


Important: The song above is NOT stored on the Chordie server. The original song is hosted at www.guitaretab.com. Chordie works as a search engine and provides on-the-fly formatting. Chordie does not index songs against artists'/composers' will. To remove this song please click here.

This song is displayed as text-only. Transposing and tuning is only available for chordpro-songs.
Rate #1 of 2 versions

Login - add to songbook

SHARE PAGE  




You need to log in to post comments