Guitar Tabs, Chords and Lyrics
Server problems seems to be fixed. Chordie has been experiencing problems with songs disappearing. These issues now seems to be fixed, but still verifying the fix. If you find anything strange, please email admin@chordie.com.


Lizard Skin   Gojira

 
 ----------------------------------------------------------------------------|
 ----------------------------------------------------------------------------|
 ----------------------------------------------------------------------------|
 ----------------------------------------------------------------------------|
 --3-3-3-3-3-3-3-3-3-3-3-3-3-3-3-3-3-3-3-3-3-3-3-3-3-3-3-3-3-3-4-4-5-5-------|
 ----------------------------------------------------------------------------|
 -----------------------------------------------------------------------------|
 -----------------------------------------------------------------------------|
 -----------------------------------------------------------------------------|
 -----------------------------------------------------------------------------|
 --2-2-2-2-2-2-2-2-2-2-2-2-2-2-2-2-2-2-2-2-2-2--2-2-2-2-2-2-2-2-2-2-2-2-2-2-2-|
 --2-2-2-2-2-2-2-2-2-2-2-2-2-2-2-2-2-2-2-2-2-2--3-3-3-3-3-3-3-3-3-3-3-3-3-3-3-|
 ----------------------------------------------------------------------------|
 ----------------------------------------------------------------------------|
 ----------------------------------------------------------------------------|
 ----------------------------------------------------------------------------|
 -2-2-2-2-2-2--2-2-2-2-2--2-2-2-2-2-2-2-2-2-2-2-2-2-2-2-2-2-2-2-2-2-2-2-2--2-|
 -3-3-3-3-3-3--2-2-2-2-2--1-1-1-1-1-1-1-1-1-1-1-1-1-1-1-1-1-1-1-1-1-1-1-1--2-|
 -----------------------------------------------------------------------------|
 -----------------------------------------------------------------------------|x2
 -----------------------------------------------------------------------------|
 -----------------------------------------------------------------------------|
 2-2-2-2--2-2-2-2-2-2-2-2-2-2-2-2-2-2-2-2-2-2-2-2-2-2-2-2-2-2-2--2-2-2-2-2-2--|
 2-2-2-2--3-3-3-3-3-3-3-3-3-3-3-3-3-3-3-3-3-3-3-3-3-3-3-3-3-3-3--2-2-2-2-2-2--|
 ----------------------------------------------------------------------------|
 ----------------------------------------------------------------------------|
 ----------------------------------------------------------------------------|
 --5---------5---------------------------------------------------------------|
 --3---------3-----3/4--2----------------------------------------------------|
 --3---0--0--3--0--3/4--3----------------------------------------------------|

 


 [-] [-] [-]  


 

 
 ----------------------------------------------------------------------------|
 ----------------------------------------------------------------------------|
 ----------------------------------------------------------------------------|
 --3-3-3--3-3-3----3-3-3----3-3-3--3-3-3--3-3-3--3-3-3----3-3-3--3-3-3-------|
 --1-1-1--1-1-1----1-1-1----1-1-1--1-1-1--1-1-1--1-1-1----1-1-1--1-1-1-------|
 --0-0-0--0-0-0----0-0-0----0-0-0--0-0-0--0-0-0--0-0-0----0-0-0--0-0-0-------|
 - - - - - - - - - - - - - - - - - - - - - - - - - - -
 ----------------------------------------------------------------------------|
 ----------------------------------------------------------------------------|
 ----------------------------------------------------------------------------|
 --3-3-3----3-3-3--3-3-3--3-3-3--3-3-3---3-3-3--3-3-3------------------------|
 --1-1-1----1-1-1--1-1-1--1-1-1--1-1-1---1-1-1--1-1-1------------------------|
 --0-0-0----0-0-0--0-0-0--0-0-0--0-0-0---0-0-0--0-0-0------------------------|
 - - - - - - - - - - - - - - - - - - - - -
 ----------------------------------------------------------------------------|
 ----------------------------------------------------------------------------|
 ----------------------------------------------------------------------------|
 --5--6--6--5--5--8--8--5--6--6--5--5--4--4----------------------------------|
 --x--x--x--x--x--x--x--x--x--x--x--x--x--x----------------------------------|
 --3--4--4--3--3--6--6--3--4--4--3--3--2--2----------------------------------|
 ----------------------------------------------------------------------------|
 ----------------------------------------------------------------------------|
 ----------------------------------------------------------------------------|
 --5/13--12----8---12---8---17---18-------18---------------------------------|
 --x--x---x----x----x---x----x----x--------x---------------------------------|
 --3/11--10----6---10---6---15---16-------16---------------------------------|
 ----------------------------------------------------------------------------|
 ----------------------------------------------------------------------------|
 ----------------------------------------------------------------------------|
 --5--6--6--5--5--8--8--5--6--6--5--5--4--4----------------------------------|
 --x--x--x--x--x--x--x--x--x--x--x--x--x--x----------------------------------|
 --3--4--4--3--3--6--6--3--4--4--3--3--2--2----------------------------------|
 ----------------------------------------------------------------------------|
 ----------------------------------------------------------------------------|
 ----------------------------------------------------------------------------|
 --5/13--12----8---12---8---8---7---8---12--13--12---------------------------|
 --x--x---x----x----x---x---x---x---x----x---x---x---------------------------|
 --3/11--10----6---10---6---6---5---6---10--11--10---------------------------|
 ----------------------------------------------------------------------------|
 ----------------------------------------------------------------------------|
 ----------------------------------------------------------------------------|
 --3-3-3--3-3-3----3-3-3----3-3-3--3-3-3--3-3-3--3-3-3----3-3-3--3-3-3-------|
 --1-1-1--1-1-1----1-1-1----1-1-1--1-1-1--1-1-1--1-1-1----1-1-1--1-1-1-------|
 --0-0-0--0-0-0----0-0-0----0-0-0--0-0-0--0-0-0--0-0-0----0-0-0--0-0-0-------|
 - - - - - - - - - - - - - - - - - - - - - - - - - - -
 ----------------------------------------------------------------------------|
 ----------------------------------------------------------------------------|
 ----------------------------------------------------------------------------|
 --3-3-3----3-3-3--3-3-3--3-3-3--3-3-3---3-3-3--3-3-3------------------------|
 --1-1-1----1-1-1--1-1-1--1-1-1--1-1-1---1-1-1--1-1-1------------------------|
 --0-0-0----0-0-0--0-0-0--0-0-0--0-0-0---0-0-0--0-0-0------------------------|
 - - - - - - - - - - - - - - - - - - - - -
 ----------------------------------------------------------------------------|
 ----------------------------------------------------------------------------|
 ----------------------------------------------------------------------------|
 ----------------------------------------------------------------------------|
 -----3-3-3-3-3-3-3-3-3-3-3-3-3-3-3-3-3-3-3-3-3-3-3-3------------------------|
 --4-------------------------------------------------------------------------|
 -------------------------------------------------------------|--------------|
 -------------------------------------------------------x4----|--------------|
 -----5-5-5-5-5-5-5-5-5-5-5-5-5-5-5-5-5-5-5-5-5-5-5-5---------|--------------|
 -----x-x-x-x-x-x-x-x-x-x-x-x-x-x-x-x-x-x-x-x-x-x-x-x---------|----3---------|
 -----3-3-3-3-3-3-3-3-3-3-3-3-3-3-3-3-3-3-3-3-3-3-3-3---------|----3---------|
 --4----------------------------------------------------------|----1---------|
 ---------------------------------------|-------------------------------------|
 ---------------------------------------|-------------------------------------|
 ---------------------------------------|-------------------------------------|
 -3-----------------3-------------------|----5---------5-----------3----------|
 -3---------3-------3---------3---------|----3---------3-----3-----3----------|
 -1-----1---3h4-----1-----1---3h4-------|----3---x--x--3--x--3h4---1--1-1-1-1-|
 - - - - - - - - -
 ------------------------------------|---------------------------------------|
 ------------------------------------|---------------------------------------|
 ------------------------------------|---------------------------------------|
 ----------3--------------------3----|---------------------------------------|
 -----3----3---------------3----3----|--------------3------------------------|
 --1--3h4--1----1-1-1-1-1--3h4--1----|---1-1-1-1-1--3h4----------------------|
 - - - - - - - - - - -
 ----------------------------------------------------------------------------|
 ----------------------------------------------------------------------------|
 ----------------------------------------------------------------------------|
 --3-3-3--3-3-3----3-3-3----3-3-3--3-3-3--3-3-3--3-3-3----3-3-3--3-3-3-------|
 --1-1-1--1-1-1----1-1-1----1-1-1--1-1-1--1-1-1--1-1-1----1-1-1--1-1-1-------|
 --0-0-0--0-0-0----0-0-0----0-0-0--0-0-0--0-0-0--0-0-0----0-0-0--0-0-0-------|
 - - - - - - - - - - - - - - - - - - - - - - - - - - -
 ----------------------------------------------------------------------------|
 ----------------------------------------------------------------------------|
 ----------------------------------------------------------------------------|
 --3-3-3----3-3-3--3-3-3--3-3-3--3-3-3---3-3-3--3-3-3------------------------|
 --1-1-1----1-1-1--1-1-1--1-1-1--1-1-1---1-1-1--1-1-1------------------------|
 --0-0-0----0-0-0--0-0-0--0-0-0--0-0-0---0-0-0--0-0-0------------------------|
 - - - - - - - - - - - - - - - - - - - - -
 ----------------------------------------------------------------------------|
 ----------------------------------------------------------------------------|
 ----------------------------------------------------------------------------|
 --5--6--6--5--5--8--8--5--6--6--5--5--4--4----------------------------------|
 --x--x--x--x--x--x--x--x--x--x--x--x--x--x----------------------------------|
 --3--4--4--3--3--6--6--3--4--4--3--3--2--2----------------------------------|
 ----------------------------------------------------------------------------|
 ----------------------------------------------------------------------------|
 ----------------------------------------------------------------------------|
 --5/13--12----8---12---8---17---18-------18---------------------------------|
 --x--x---x----x----x---x----x----x--------x---------------------------------|
 --3/11--10----6---10---6---15---16-------16---------------------------------|
 ----------------------------------------------------------------------------|
 ----------------------------------------------------------------------------|
 ----------------------------------------------------------------------------|
 --5--6--6--5--5--8--8--5--6--6--5--5--4--4----------------------------------|
 --x--x--x--x--x--x--x--x--x--x--x--x--x--x----------------------------------|
 --3--4--4--3--3--6--6--3--4--4--3--3--2--2----------------------------------|
 ----------------------------------------------------------------------------|
 ----------------------------------------------------------------------------|
 ----------------------------------------------------------------------------|
 --5/13--12----8---12---8---8---7---8---12--13--12---------------------------|
 --x--x---x----x----x---x---x---x---x----x---x---x---------------------------|
 --3/11--10----6---10---6---6---5---6---10--11--10---------------------------|


Important: The song above is NOT stored on the Chordie server. The original song is hosted at www.guitaretab.com. Chordie works as a search engine and provides on-the-fly formatting. Chordie does not index songs against artists'/composers' will. To remove this song please click here.

This song is displayed as text-only. Transposing and tuning is only available for chordpro-songs.
Rate #1 of 2 versions

Jango Player

Login - add to songbook

SHARE PAGE  




You need to log in to post comments