Guitar Tabs, Chords and Lyrics
Server problems seems to be fixed. Chordie has been experiencing problems with songs disappearing. These issues now seems to be fixed, but still verifying the fix. If you find anything strange, please email admin@chordie.com.


Vanilla Queen  Golden Earring

Intro
Dm Dadd9 Dsus4 Dm Bbmaj7 C Dm Dadd9 Dsus4 Dm (x2)
[Dm]Fascinating [Dsus4] Lady[Dm] [Bbmaj7] snowflake in the sun
You make [C]me feel so bourgeois oh, you?ve captured everyone[Dm] [Dsus4] [Dm]
[Dm]I hear you?ve been a d[Dsus4]ancer [Dm]at some famous par[Bbmaj7]is show
And milli[C]on dollar lovers neatly saw you to your d[Dm]oor[Dsus4] [Dm]
[Dm]Nineteen fifty seve[Dsus4]n [Dm] [Bbmaj7]sweetheart of the year
Sec[C]ret of your beauty was your moontan and your f[Dm]ear[Dsus4] [Dm]
[Dm]And now you run this city [Dsus4] yo[Dm]u?re still honey t[Bbmaj7]o the flies
[C]Attract the incrowd dandies faraway look in [Dm]their eyes[Dsus4] [Dm]
Chorus
[G]You?re the bright, nocturnal[F] Vanilla Queen[C] [Dm]
[F]Your mask is sterile di[C]gnity[G] [Dm]
[G]Tell me why, nocturn[F]al Vanilla Quee[C]n[Dm]
[F]You haunt me , even in m[C]y dreams[G7] [Dm]
Intro
[Dm]It couldn?t be avoid[Dsus4]ed [Dm] we[Bbmaj7] were bound to meet
I[C] knew you would drag me down and toss me off my feet[Dm] [Dsus4] [Dm]
[Dm]Sweet moments of desire [Dsus4] [Dm]sweet moments [Bbmaj7]of relief
[C]You blew down my fences oh you?re natural make believe[Dm] [Dsus4] [Dm]
Chorus
Interlude (various picking around these basic chords)
Dm Dsus4 Dadd9 C Dsus4 Dm (x2)
Dm Fmaj2 Gmaj2 C G Dm ( repeat during guitar solo)
(there is some open string picking around C and G chords)
Chorus
End tab repeat to fade as desired
 
 E-----------------------------------------------------------------------|
 B-----------------------------------------------------------------------|
 G-----------------------------------------------------------------------|
 D---------------3----2--------------------------------------------------|
 A----3-----5---------------3-----5---------------------3------5---------|
 E-------------------------------------------5----5 ---------------------|
 E------------------------------------------------------------------------|
 B------------------------------------------------------------------------|
 G------------------------------------------------------------------------|
 D--------------3---2---------------------------------------3-------------|
 A---------5-----------------3---5-----------------5----------------------|
 E----6----------------------------------6----6---------------------------|
 E-------------------------------------------------------------------------|
 B-------------------------------------------------------------------------|
 G-------------------------------------------------------------------------|
 D--------------3---2--------------5---------------------2---5-------------|
 A----3---5------------------3--------------3----3-------------------------|
 E-------------------------------------------------------------------------|
 E-----------------------------------------------------------------------|
 B-----------------------------------------------------------------------|
 G-----------------------------------------------------------------------|
 D---------------3----2--------------------------------------------------|
 A----3-----5---------------3-----5---------------------3------5---------|
 E-------------------------------------------5----5 ---------------------|

Chords
Dm 000231
Dmadd9 000230
Dsus4 000233
G 310003
Bbmaj7 008765
C 032010
[F]G7[113211] 310001
Fmaj2 xxx565
Gmaj2 xxx787
this is how i play it hope it helps

Important: The song above is NOT stored on the Chordie server. The original song is hosted at www.guitaretab.com. Chordie works as a search engine and provides on-the-fly formatting. Chordie does not index songs against artists'/composers' will. To remove this song please click here.

Text color:
Chord color:
Chord grids: 
Font size:    
Page size: 

Bbmaj7 C Dm Dsus4 F G G7
Rate #1 of 2 versions

Jango Player

Login - add to songbook

SHARE PAGE  




You need to log in to post comments