Guitar Tabs, Chords and Lyrics
Login is temporarily disabled for some users. Do not panic. Will be back in an hour or two. DO NOT REREGISTER!!


Soms vraagt een mens zich af  Gorki

Titel: Soms vraagt een mens zich af
Artiest: Gorki
Album: Gorky
Akkoorden: Am(x02210)
C(x32010)
F(xx3210)
G(320033)
Intro:
 
 e:--------------------|
 B:-1/8--/10--8--5--3--|
 G:--------------------|
 D:--------------------|
 A:--------------------|
 E:--------------------|

Strofe 1:
Soms [Am]vraagt een mens zich [C]af hoe hij in g[F]odsnaam zal overl[G]even
de n[Am]acht vol boze d[C]romen en de w[F]ekker om halfz[G]even.
De h[Am]eldentocht door de f[C]ille, de he[F]ldentocht naar de d[G]iscotheek.
Om p[Am]unten te verdie[C]nen en v[F]anacht niet all[G]een te zijn.
we b[F]ouwen aan de t[G]oekomst, we l[F]even voor elk[G]aar.
we b[F]ouwen aan de t[G]oekomst, we l[F]even voor elk[G]aar.
Solo:
 
 e:------------------------------------------------------------|
 B:-1/8--/10--8--5--3---1/8--/10--8--5--3---1/8--/10--8-----3--|
 G:------------------------------------------------------5~----|
 D:------------------------------------------------------------|
 A:------------------------------------------------------------|
 E:------------------------------------------------------------|

(zelfde als de intro, maar met nadruk of de 5.)
Strofe 2:
[Am]Ik zag je voor het e[C]erst bij het zw[F]embad met je m[G]oeder?
ze was [Am]even mooi als j[C]ij, ik werd haar sl[F]aaf, haar kleine l[G]oeder.
(1e Gitaar: G --3\5)
En ze kr[Am]eeg voor haar verj[C]aardag een [F]auto van je v[G]ader,
(1e Gitaar: G --3\5)
we d[Am]oen het op de a[C]chterbank en ik v[F]oel me geen ve[G]rrader.
 
 (1e Gitaar: B:-/8~---1~--/5~--3--)

we b[F]ouwen aan de t[G]oekomst, we l[F]even voor elk[G]aar.
we b[F]ouwen aan de t[G]oekomst, we l[F]even voor elk[G]aar.
(1e Gitaar: Speelt intro)
Hier heerst vrede,[Am] [C] [F] [G]er is h[Am]oop voor iedereen.[C] [F] [G]
Hier heerst vrede,[Am] [C] [F] [G]er is h[Am]oop voor iedereen.[C] [F] [G]
Solo:
 
 e:-----------------------------------|
 B:-/8-8-8-8-1-1-1-1-5-5-5-5-3-3-3-3--|
 G:-----------------------------------|
 D:-----------------------------------|
 A:-----------------------------------|
 E:-----------------------------------|
 e:-----------------------------------|
 B:-/8~--1--/10-8-5~---3~-------------|
 G:-----------------------------------|
 D:-----------------------------------|
 A:-----------------------------------|
 E:-----------------------------------|
 e:-----------------------------------|
 B:-/8~-/10-8-----10------------------|
 G:-----------------------------------|
 D:-----------------------------------|
 A:-----------------------------------|
 E:-----------------------------------|

Outro:
 
 e:------8/15-------------------------|
 B:-1/8-------------------------------|
 G:-----------------------------------|
 D:-----------------------------------|
 A:-----------------------------------|
 E:-----------------------------------|

Suggesties zijn altijd welkom.

Important: The song above is NOT stored on the Chordie server. The original song is hosted at www.guitaretab.com. Chordie works as a search engine and provides on-the-fly formatting. Chordie does not index songs against artists'/composers' will. To remove this song please click here.

Text color:
Chord color:
Chord grids: 
Font size:    
Page size: 

Am C F G
Rate #1 of 1 versions

Login - add to songbook

SHARE PAGE  



You need to log in to post comments