Guitar Tabs, Chords and Lyrics
Login is temporarily disabled for some users. Do not panic. Will be back in an hour or two. DO NOT REREGISTER!!


Sword of the Ocean  Grand Magus

 
 -----------------------------------------------------------------------------------------

Sword of the Ocean - Grand Magus
 
 -----------------------------------------------------------------------------------------

Tabbed by: Varun_Nair
E-mail: varunnair91@gmail.com
Tuning: Standard
Key: * -> muted
INTRO:
(*B *B *B/ *C# *C# *C#)*3
E / D# / B B slide to C#
(*B *B *B/ *C# *C# *C#)*3
B slide to C# / B slide to C#
(*B *B *B/ *C# *C# *C#)*3
E / D# / B B slide to C#
(*B *B *B/ *C# *C# *C#)*2 / *B *B *B / C# / B(sustain or strum lighty)
VERSE 1:
B / C# / E(sustain till end of the following line)
The first was the last one
B / C# / C#(sustain till end of the following line)
The last one to fall
B / C# / E(sustain till end of the following line)
He sounded the warning
B / C# / C#(sustain till end of the following line)
And put out the call
PRE-CHORUS 1:
C# / A(sustain till end of the following line)
Remorseless invaders
A / F#(sustain till end of "stand or run")
or traders with gold?
Stand or run
(*B *B *B/ *C# *C# *C#)*3
E / D# / B B slide to C#
(*B *B *B/ *C# *C# *C#)*3
C# / B / G# G# slide to A(sustain till end of following line)
Will flesh pay for metal
A / F#(sustain till end of following line)
or riches be shared
(play the following while "stand or run" is sung)
 
 e|------------4-----|
 B|--------4---------|
 G|------5---5-------|
 D|----6-------------|
 A|--6---------------|
 E|4-----------------|

- stand or run
(let the last note ring till end of "We bring the")
CHORUS 1:
We bring the
B slide to C#/ C# / C# / C#
fire and the flame
[E] [/] [D#] [/] [E]  
B slide to C#/ C# / C# / C#
Agony and pain
[E] [/] [D#] [/] [E]  
[B]Sword of the ocean carve me your [F#]name
(play chorus again)
(play intro)
VERSE 2:
B / C# / E(sustain till end of the following line)
The men on the shoreline
B / C# / C#(sustain till end of the following line)
Guardians of old
B / C# / E(sustain till end of the following line)
They prayed for a warning
B / C# / C#(sustain till end of the following line)
They ran from the wall
PRE-CHORUS 2:
C# / A(sustain till end of the following line)
Remorseless invaders
A / F#(sustain till end of "stand or run")
or traders with gold?
Stand or run
(*B *B *B/ *C# *C# *C#)*3
E / D# / B B slide to C#
(*B *B *B/ *C# *C# *C#)*3
C# / B / G# G# slide to A(sustain till end of following line)
Will flesh pay for metal
A / F#(sustain till end of following line)
or riches be shared
(play the following while "stand or run" is sung)
 
 e|------------4-----|
 B|--------4---------|
 G|------5---5-------|
 D|----6-------------|
 A|--6---------------|
 E|4-----------------|

- stand or run
(let the last note ring till end of "We bring the")
CHORUS 2:
We bring the
B slide to C#/ C# / C# / C#
fire and the flame
[E] [/] [D#] [/] [E]  
B slide to C#/ C# / C# / C#
Agony and pain
[E] [/] [D#] [/] [E]  
[B]Sword of the ocean carve me your [F#]name
(play chorus again)
LEAD:
 
 e|-------------------------------------------------------------12-14-16-------16-17-16-14-12-11|
 B|14-----14-16-17-16-14-16-16-------16-17-19-17-16-17-17----14---------------------------------|
 G|-----13------------------------16------------------------------------------------------------|
 D|---------------------------------------------------------------------------------------------|
 A|---------------------------------------------------------------------------------------------|
 E|---------------------------------------------------------------------------------------------|
 e|---------------|
 B|-14-16-14-13---|
 G|---------------|
 D|---------------|
 A|---------------|
 E|---------------|
 e|-------------------------------------------------------------12-14-16-------17-16-14-12-11---|
 B|14-----14-16-17-16-14-16-16-------16-17-19-17-16-17-17----14---------------------------------|
 G|-----13------------------------16------------------------------------------------------------|
 D|---------------------------------------------------------------------------------------------|
 A|---------------------------------------------------------------------------------------------|
 E|---------------------------------------------------------------------------------------------|
 e|--------------------------------|
 B|-14-16-14-16-14-13--------------|
 G|-------------------9-11-13------|
 D|--------------------------------|
 A|--------------------------------|
 E|--------------------------------|

PRE-CHORUS 3:
A(sustain till end of the following line)
Remorseless invaders
A / F#(sustain till end of "stand or run")
or traders with gold?
Stand or run
(*B *B *B/ *C# *C# *C#)*3
E / D# / B B slide to C#
(*B *B *B/ *C# *C# *C#)*3
C# / B / G# G# slide to A(sustain till end of following line)
Will flesh pay for metal
A / F#(sustain till end of following line)
or riches be shared
(play the following while "stand or run" is sung)
 
 e|------------4-----|
 B|--------4---------|
 G|------5---5-------|
 D|----6-------------|
 A|--6---------------|
 E|4-----------------|

- stand or run
(let the last note ring till end of "We bring the")
CHORUS 3:
We bring the
B slide to C#/ C# / C# / C#
fire and the flame
[E] [/] [D#] [/] [E]  
B slide to C#/ C# / C# / C#
Agony and pain
[E] [/] [D#] [/] [E]  
[B]Sword of the ocean carve me your [F#]name
(play chorus again)
OUTRO:
(*B *B *B/ *C# *C# *C#)*3
E / D# / B B slide to C#
(*B *B *B/ *C# *C# *C#)*3
B slide to C# / B slide to C#
(*B *B *B/ *C# *C# *C#)*3
E / D# / B B slide to C#
E / D# / B B slide to C#
E / D# / B B slide to C#(sustain till it naturally fades)
Please feel free to contact me regarding doubts or corrections.

Important: The song above is NOT stored on the Chordie server. The original song is hosted at www.guitaretab.com. Chordie works as a search engine and provides on-the-fly formatting. Chordie does not index songs against artists'/composers' will. To remove this song please click here.

Text color:
Chord color:
Chord grids: 
Font size:    
Page size: 

B D# E F#
Rate #2 of 2 versions

Login - add to songbook

SHARE PAGE  



You need to log in to post comments