Guitar Tabs, Chords and Lyrics
Server problems seems to be fixed. Chordie has been experiencing problems with songs disappearing. These issues now seems to be fixed, but still verifying the fix. If you find anything strange, please email admin@chordie.com.


Alone Together  Grant Green

 
 -------------------------------------------------------------------------------

ALONE TOGETHER - Grant Green
 
 -------------------------------------------------------------------------------

Album - Green Street
Tabbed by: cflat
Email: cflat@earthlink.net
Tuning: e,b,g,d,a,e 1/4 flat to match the album
Tempo = 70 - 72 1/4 notes, 4/4 measures
INTRO chord progression -- 8 measures
 
 Cm - - - - Dm7(b5) - - G7 - - repeat x 8

Cm (x35343)
Dm7b5 (x5656x)
[G7]Gm7b5 [(353433)](xx5666)
C7b9 (xx2323)
[Fm] [(133111)]  
[Fm7] [(131141)]  
[Am7]D7 [(575555)](x57575)
Fm7(Alt)(x8689x)
Bb7 (686766)
Eb (x68886)
Eb7 (x68686)
CM7 (x35453)
VERSE chord progression -- 7 measures
 
 Cm - - - - - - - - Dm7(b5) - - - - G7 - - - -
 Cm - - - - - - - - Dm7(b5) - - - - G7 - - - -
 Cm - - - - - - - - Gm7(b5) - - - - C7(b9) - - - -
 Fm - - - - - - - - Fm7 - - - - - - - -
 Am7 - - - - D7 - - - - Fm7(Alt) - - - - Bb7 - - - -
 Eb - - - - Eb7 - - - - Dm7(b5) - - - - G7 - - - -
 CM7 - - - - - - - Dm7(b5) - - - - G7 - - - - 

CHORUS chord progression -- 16 measures
 
 Gm7(b5) - - - - C7(b9) - - - - Fm - - - - Fm7 - - - -
 Fm7(b5) - - - - C7(b9) - - - - Eb - - Eb7 - - Dm7(b5) - G7 - -
 Cm - - - - Dm7(b5) - - G7 - - Cm - - - - Dm7(b5) - - G7 - -
 Cm - - - - Dm7(b5) - - G7 - - Cm - - - - Dm7(b5) - - G7 - - 

INTRO: -- 16 Bars
pu
 
 e|---------------------------------------------------------------------------|
 B|------------------------------------------------------------------------6--|
 G|------------------------------------------------------------------5--8-----|
 D|---------------------------------------------------------------------------|
 A|---------------------------------------------------------------------------|
 E|---------------------------------------------------------------------------|

[1]  
 
 e|---------------------------------------------------------------------------|
 B|6-----------------8---------------6-----6h7p6--6h7p6-----------------------|
 G|---------8----------------5--8----------------8------8-----5---------------|
 D|-----------------------------------------------------------------5----8----|
 A|---------------------------------------------------------------------------|
 E|---------------------------------------------------------------------------|

[2]  
 
 e|---------------------------------------------------------------------------|
 B|------------------------------------------------------------------------6--|
 G|5----5------------------------------------------------------------5--8-----|
 D|---------------------------------------------------------------------------|
 A|---------------------------------------------------------------------------|
 E|---------------------------------------------------------------------------|

[3]  
 
 e|-------------------------------------6-------------------------------------|
 B|6---6---------8-------------6--7--8----7/8--7--6---------------------------|
 G|---------8------------5--8------------------------8--5----------------5----|
 D|------------------------------------------------------------------8--------|
 A|---------------------------------------------------------------------------|
 E|---------------------------------------------------------------------------|

[4]  
 
 e|---------------------------------------------------------------------------|
 B|------------------------------------------------------------------------6--|
 G|5----5------------------------------------------------------------5--8-----|
 D|---------------------------------------------------------------------------|
 A|---------------------------------------------------------------------------|
 E|---------------------------------------------------------------------------|

[5]  
 
 e|-----------------------------8--11--8--13--11--8---------------------------|
 B|6---------------8---------------------------------11--8--------------------|
 G|---------8-----------------------------------------------11--10--8---------|
 D|--------------------------------------------------------------------10--8--|
 A|---------------------------------------------------------------------------|
 E|---------------------------------------------------------------------------|

[6]  
 
 e|---------------------------------------------------------------------------|
 B|---------------------------------------------------------------------6--7--|
 G|---------------------------------------------------------------5--8--------|
 D|10---10--------------------------------------------------------------------|
 A|---------------------------------------------------------------------------|
 E|---------------------------------------------------------------------------|

[7]  
 
 e|---6-----------------------------------------------------------------------|
 B|8-----8--7--6--------------------------6---h7--6h7p6---6-------------------|
 G|---------------8--5----------8-----------------------8------8----5---------|
 D|----------------------------------------------------------------------8----|
 A|---------------------------------------------------------------------------|
 E|---------------------------------------------------------------------------|

8
 
 e|---------------------------------------------------------------------------|
 B|---------------------------------------------------------------------------|
 G|5----5----------------------------------------------------------------5----|
 D|---------------------------------------------------------------------------|
 A|---------------------------------------------------------------------------|
 E|---------------------------------------------------------------------------|

VERSE 1 -- 14 Bars
[1]  
 
 e|------------------------------------|--------------------------------------|
 B|------------------------------------|-------------------------8--8---------|
 G|8---------------5-------7----7------|--------5--7------8-------------------|
 D|------------------------------------|--------------------------------------|
 A|------------------------------------|--------------------------------------|
 E|------------------------------------|--------------------------------------|

[3]  
 
 e|------------------------------------|--------------------8--8----------8---|
 B|-------------------------8--8-------|----------8----9----------------------|
 G|--------5--7------8-----------------|---10---------------------------------|
 D|------------------------------------|--------------------------------------|
 A|------------------------------------|--------------------------------------|
 E|------------------------------------|--------------------------------------|

[5]  
 
 e|10-(hold)-8-h-9-p-8-----------------|--------------------------------------|
 B|--------------------11-(hold)-----9-|8--9p8----8--9p8----8--9p8----8-------|
 G|------------------------------------|------10--------10--------10-------10-|
 D|------------------------------------|--------------------------------------|
 A|------------------------------------|--------------------------------------|
 E|------------------------------------|--------------------------------------|

[7]  
 
 e|------------------------------------|--------------------------------------|
 B|------------------------------------|--------------------------------------|
 G|8h9----9----------------------------|8----8----------------------7----7----|
 D|--------------------------------10--|------------------10------------------|
 A|------------------------------------|--------------------------------------|
 E|------------------------------------|--------------------------------------|

[2]  
 
 e|------------------------------------|--------------------------------------|
 B|-------------------------8--8-------|---------------------------8--8-------|
 G|-----------7------8-----------------|-------------7------8-----------------|
 D|-------10---------------------------|---------10---------------------------|
 A|------------------------------------|--------------------------------------|
 E|------------------------------------|--------------------------------------|

[4]  
 
 e|-------------------------8--8-----8-|10--------8---------------------------|
 B|------------8-----9-----------------|-----------------11--11------------9--|
 G|--------10--------------------------|--------------------------------------|
 D|------------------------------------|--------------------------------------|
 A|------------------------------------|--------------------------------------|
 E|------------------------------------|--------------------------------------|

[6]  
 
 e|--------------------------------------------|------------------------------|
 B|8------8h9p8--8h9p8--8h9p8--8h9p8--8h9p8----|-----------------------8--h9--|
 G|-----10-----10-----10-----10-----10-----10--|8h9--9------------------------|
 D|--------------------------------------------|------------------------------|
 A|--------------------------------------------|------------------------------|
 E|--------------------------------------------|------------------------------|

CHORUS 1 -- 8 Bars
[1]  
 
 e|----------------------9-8h9p8-------|--------------------------------------|
 B|11----8--h9---11---------------11---|9----------8----9\------------------8-|
 G|------------------------------------|-----10------------------------10-----|
 D|------------------------------------|--------------------------------------|
 A|------------------------------------|--------------------------------------|
 E|------------------------------------|--------------------------------------|

[3]  
 
 e|-----------------------8-h9p8-------|--------------------------------------|
 B|9------8---8h9--8h9-----------11--9-|8---------8--9--8---------------------|
 G|---10-------------------------------|---8--10-----------10--7--8--10-------|
 D|------------------------------------|---------------------------------10---|
 A|------------------------------------|--------------------------------------|
 E|------------------------------------|--------------------------------------|

[5]  
 
 e|---------------|----------------------|---------------8------11------10----|
 B|---------------|-----------------8-8--|-8-8--10-10-------------------------|
 G|8-8------7-7---|-------7-7--8-8-------|------------------------------------|
 D|-----10--------|10-10-----------------|------------------------------------|
 A|---------------|----------------------|------------------------------------|
 E|---------------|----------------------|------------------------------------|

8
 
 e|8--11--8--13--11--8--------------------------------------------------------|
 B|---------------------11--8--11--8--11--8--11--8--11--8--11--8--------------|
 G|-----------------------------------------------------------------10---8----|
 D|---------------------------------------------------------------------------|
 A|---------------------------------------------------------------------------|
 E|---------------------------------------------------------------------------|

VERSE 2 -- 14 Bars
[1]  
 
 e|---------------------------------------------------------------------------|
 B|------------------------------/8-------------------------------------------|
 G|------------------8--------------------\10----8----10----8-----------------|
 D|10----10----------------10------------------------------------10------8----|
 A|---------------------------------------------------------------------------|
 E|---------------------------------------------------------------------------|

[2]  
 
 e|---------------------------------------------------------------------------|
 B|---------------------------------------------------------------------------|
 G|---------------------------------------------------------------------------|
 D|8--h10--p8--h10---------------------------------------------------------10-|
 A|---------------------------------------------------------------------------|
 E|---------------------------------------------------------------------------|

[3]  
 
 e|-----------------------------------------------------------------9-h8------|
 B|------------------------8--9--10--11--10--9--8------------8--11--------11--|
 G|8----------8---------------------------------------10--9-------------------|
 D|-------10---------10-------------------------------------------------------|
 A|---------------------------------------------------------------------------|
 E|---------------------------------------------------------------------------|

[4]  
 
 e|---------------------------8------------------------------------------8----|
 B|9-----------8--------------------------------------------------------------|
 G|-----10---------9----10----------------------------------------------------|
 D|---------------------------------------------------------------------------|
 A|---------------------------------------------------------------------------|
 E|---------------------------------------------------------------------------|

[5]  
 
 e|10--------------------8--------------------------11----8-------------------|
 B|---------------------------11--------10----9----------------11----8--------|
 G|-----------------------------------------------------------------------10--|
 D|---------------------------------------------------------------------------|
 A|---------------------------------------------------------------------------|
 E|---------------------------------------------------------------------------|

[6]  
 
 e|---------------------------------------------------------------------------|
 B|8--------------------11----9--8h9p8---------------------------9--p8--------|
 G|-------------------------------------10--7h8p7---------7--10----------10---|
 D|------------------------------------------------10-------------------------|
 A|---------------------------------------------------------------------------|
 E|---------------------------------------------------------------------------|

[7]  
 
 e|---------------------------------------------------------------------------|
 B|-----------------------------------------------------------6h8h9p8p6-------|
 G|9-------------7-----------------------------------------------------7p5p4--|
 D|---------9-------9----10---------------------------------------------------|
 A|---------------------------------------------------------------------------|
 E|---------------------------------------------------------------------------|

8
 
 e|-------------------------------8-----11-----8-----13-------------11----8---|
 B|6h9p8p6--------------------------------------------------------------------|
 G|--------8------------------------------------------------------------------|
 D|----------10---------------------------------------------------------------|
 A|---------------------------------------------------------------------------|
 E|---------------------------------------------------------------------------|

[9]  
 
 e|----15---------11----------13-----------11---------------------------------|
 B|---------------------13---------------------13--11------13--11-------------|
 G|----------------------------------------------------12----------12-p11-10--|
 D|---------------------------------------------------------------------------|
 A|---------------------------------------------------------------------------|
 E|---------------------------------------------------------------------------|

10
 
 e|--------------------------------------8h9p8------------------------9p8-----|
 B|---------------------------------------------11--9--8----------11------11--|
 G|------------------------------------------------------10-------------------|
 D|13--10-----------------10--------------------------------------------------|
 A|--------13--10-------------------------------------------------------------|
 E|---------------------------------------------------------------------------|

[11]  
 
 e|-------------------8--8---------------------------/10~~~~~~~~~~~~----------|
 B|9------8--8h9h10h11------11--11--9-----------------------------------------|
 G|---10----------------------------------------------------------------------|
 D|---------------------------------------------------------------------------|
 A|---------------------------------------------------------------------------|
 E|---------------------------------------------------------------------------|

[12]  
 
 e|10h13~~~~~~~~----------------------11-----10-------------------------------|
 B|-------------------------------------------------------13------11----------|
 G|---------------------------------------------------------------------------|
 D|---------------------------------------------------------------------------|
 A|---------------------------------------------------------------------------|
 E|---------------------------------------------------------------------------|

[13]  
 
 e|---------------------------------------------------------------------------|
 B|9-8h9p8-----------------8h9p8---------------------------------9--8---------|
 G|--------10--8------------------10--7-------------------7--10--------10-----|
 D|-------------------------------------------------9--9----------------------|
 A|---------------------------------------------------------------------------|
 E|---------------------------------------------------------------------------|

[14]  
 
 e|---------------------------------------------------------------------------|
 B|------------------------------------------------------------------8--9-----|
 G|9------------------------7-------------------------------------------------|
 D|-------------------7--9-----9--10------------------------------------------|
 A|-----------/8--10----------------------------------------------------------|
 E|---------------------------------------------------------------------------|

CHORUS 2 -- 8 Bars
[1]  
 
 e|------------------------------------------------------------------9---8----|
 B|11------11------11------11---10---9---8-----------------8---11-----------11|
 G|--------------------------------------------10---9-------------------------|
 D|---------------------------------------------------------------------------|
 A|---------------------------------------------------------------------------|
 E|---------------------------------------------------------------------------|

[2]  
 
 e|---------------------------------------------------------------------------|
 B|9---11----------8---9-------------8--9---11----------8---9---------8--9--11|
 G|---------------------------10----------------------------------10----------|
 D|---------------------------------------------------------------------------|
 A|---------------------------------------------------------------------------|
 E|---------------------------------------------------------------------------|

[3]  
 
 e|7-----------------------------6--------------------------------------------|
 B|----------------------------------------9----------8----6------------------|
 G|-------------------------------------------------------------8----7--------|
 D|-----------------------------------------------------------------------8---|
 A|---------------------------------------------------------------------------|
 E|---------------------------------------------------------------------------|

[4]  
 
 e|-----------------------------------------------------------------6---------|
 B|-----------------------------------------------------------8--9-----8--p6--|
 G|-----------------7--8--9--10--9--8--7---------------7--10------------------|
 D|10---10--------------------------------10--7--8--9-------------------------|
 A|---------------------------------------------------------------------------|
 E|---------------------------------------------------------------------------|

[5]  
 
 e|-----------------------8-----11/13--------------11---8----11/13--------11--|
 B|---------------------------------------------------------------------------|
 G|8----5---------------------------------------------------------------------|
 D|---------------------------------------------------------------------------|
 A|---------------------------------------------------------------------------|
 E|---------------------------------------------------------------------------|

[6]  
 
 e|8-----11/13------------11---8--------11/13-----------11---8------11/15-----|
 B|---------------------------------------------------------------------------|
 G|---------------------------------------------------------------------------|
 D|---------------------------------------------------------------------------|
 A|---------------------------------------------------------------------------|
 E|---------------------------------------------------------------------------|

[7]  
 
 e|----11---8--------11/13------11----8----13---11---8------------------------|
 B|------------------------------------------------------8---11--/13--13------|
 G|---------------------------------------------------------------------------|
 D|---------------------------------------------------------------------------|
 A|---------------------------------------------------------------------------|
 E|---------------------------------------------------------------------------|

8
 
 e|---------------------------------------------------------------------------|
 B|11----8--------------------------------------------------------------------|
 G|----------11---10---8---------8-------------------------------8-----10-----|
 D|------------------------10-----------------------------10------------------|
 A|---------------------------------------------------------------------------|
 E|---------------------------------------------------------------------------|

VERSE 3 -- 14 Bars
[1]  
 
 e|------8--------------------------------------------------------------------|
 B|7/8-------11---8-----------------------------------------------------------|
 G|--------------------10---------------8-------10----------------8----10--8--|
 D|-----------------------------10-------------------------10-----------------|
 A|---------------------------------------------------------------------------|
 E|---------------------------------------------------------------------------|

[2]  
 
 e|---------------------------------------------------------------------------|
 B|---------------------------------------------------------------------------|
 G|--10h11p10-8------------8------10----10-h11----10h11p10-8---10---8---------|
 D|---------------10---------------------------------------------------10--10-|
 A|---------------------------------------------------------------------------|
 E|---------------------------------------------------------------------------|

[3]  
 
 e|-----------------------------------------------8h9p8-----------------------|
 B|------------------------------------------------------11--8h9p8------------|
 G|------8--------10-----------------------------------------------10--9------|
 D|----------------------10------10---------------------------------------10--|
 A|---------------------------------------------------------------------------|
 E|---------------------------------------------------------------------------|

[4]  
 
 e|---------------------------------------------------------------------------|
 B|---8--------------8---9----------------------------------------------------|
 G|--------9---10-------------------------------------------------------------|
 D|----------------------------10--10-----------------------------------------|
 A|---------------------------------------------------------------------------|
 E|---------------------------------------------------------------------------|

[5]  
 
 e|-----------------------------------8----11---10---9---8--------------------|
 B|-------------8----------------9-----------------------------9--8------11--9|
 G|------10----------9-----10-----------------------------------------10------|
 D|8--------------------------------------------------------------------------|
 A|---------------------------------------------------------------------------|
 E|---------------------------------------------------------------------------|

[6]  
 
 e|---------------------------------------------------------------------------|
 B|8------------------------------------------------8---9---11---9---8--------|
 G|----8----------10--9--8------------------7---10------------------------10--|
 D|--------10--------------12-------10--9-------------------------------------|
 A|---------------------------------------------------------------------------|
 E|---------------------------------------------------------------------------|

[7]  
 
 e|---------------------------------------------------------------------------|
 B|-----------8----------10-------8-----------------------8~------------------|
 G|9----------8--h9------10-------8--h9---------------------------------------|
 D|------10----------------------------------------------------------------10-|
 A|---------------------------------------------------------------------------|
 E|---------------------------------------------------------------------------|

8
 
 e|---------------------------------------------------------------------------|
 B|----------8--11--8--------------------------8--11--8-----------------------|
 G|8--10--11-----------11--10--8-----8--10--11----------11--10--8----8--10--11|
 D|------------------------------10-------------------------------10----------|
 A|---------------------------------------------------------------------------|
 E|---------------------------------------------------------------------------|

[9]  
 
 e|---------------------------------------------------------------------------|
 B|8--11--8------------------------8--11--8------------------------8--11--8---|
 G|---------11--10--8----8--10--11----------11--10--8----8--10--11----------11|
 D|-------------------10------------------------------10----------------------|
 A|---------------------------------------------------------------------------|
 E|---------------------------------------------------------------------------|

10
 
 e|---------------------------------------------------------------------------|
 B|-------------------8--11--8------------------------8--11--8-----------9--11|
 G|10--8----8--10--11----------11--10--8----8--10--11----------11--10--10-----|
 D|------10------------------------------10-----------------------------------|
 A|---------------------------------------------------------------------------|
 E|---------------------------------------------------------------------------|

[11]  
 
 e|---8--11---------------------------8--11-p8-------------------------8\-----|
 B|12----------12--11--9----9--11-h12----------12--11--9----9--11--12---------|
 G|----------------------10------------------------------10-------------------|
 D|---------------------------------------------------------------------------|
 A|---------------------------------------------------------------------------|
 E|---------------------------------------------------------------------------|

[12]  
 
 e|------------/10--------10h13-------------------15------------------13------|
 B|---------------------------------------------------------------------------|
 G|---------------------------------------------------------------------------|
 D|---------------------------------------------------------------------------|
 A|---------------------------------------------------------------------------|
 E|---------------------------------------------------------------------------|

[13]  
 
 e|11------8------------------------------------------------------------------|
 B|--------------8----11---9---8-h9-p8----------------------------------9-----|
 G|-------------------------------------10----8---------------------10----12--|
 D|-----------------------------------------------12---10---9---12------------|
 A|---------------------------------------------------------------------------|
 E|---------------------------------------------------------------------------|

[14]  
 
 e|---------------------------------------------------------------------------|
 B|-----------8----------10-------8---------------------------------8--9--10--|
 G|10--9------8--h9------10-------8--h9---------------------------------------|
 D|---------------------------------------10----7-----------------------------|
 A|---------------------------------------------------------------------------|
 E|---------------------------------------------------------------------------|

CHORUS 3 -- 8 Bars
[1]  
 
 e|------------------------------------------------------8--9--11--9--8--9--8-|
 B|11---------8---9---10---11--------8---9---10---11--------------------------|
 G|---------------------------------------------------------------------------|
 D|---------------------------------------------------------------------------|
 A|---------------------------------------------------------------------------|
 E|---------------------------------------------------------------------------|

[2]  
 
 e|----8----------------------------------------------------------------------|
 B|11-----11--9--11--9--8--9--8----------------------------------------9--11--|
 G|------------------------------10------------------9--12-p9--10--12---------|
 D|---------------------------------------------------------------------------|
 A|---------------------------------------------------------------------------|
 E|---------------------------------------------------------------------------|

[3]  
 
 e|---------------------------------------------------------------------------|
 B|8--11--8--9--10------7--8-----------------------8------7-------------------|
 G|-----------------11--------8--11--10--9------8-----10-----7----------------|
 D|-----------------------------------------10------------------8--8--------8-|
 A|------------------------------------------------------------------9--10----|
 E|---------------------------------------------------------------------------|

[4]  
 
 e|------------------------------------------3--4--3--------------------------|
 B|----------5------------------------3--6------------6--4--3-----------3-----|
 G|7--10--9-----7--5-------------------------------------------5--4--------4--|
 D|------------------------------------------------------------------5--------|
 A|---------------------------------------------------------------------------|
 E|---------------------------------------------------------------------------|

[5]  
 
 e|---------------------------------------------------------------------------|
 B|--------------4------------7-h8-----------6--------------------------------|
 G|5----------------------------------------------8-------5\------------------|
 D|-------------------------------------------------------------5-------8-----|
 A|---------------------------------------------------------------------------|
 E|---------------------------------------------------------------------------|

[6]  
 
 e|-----------------------------------8---------------------------------------|
 B|-----------------------7-h8----------------------7-h8--6h7p6---------------|
 G|5----------8--------------------------------------------------8---5-----8--|
 D|---------------------------------------------------------------------------|
 A|---------------------------------------------------------------------------|
 E|---------------------------------------------------------------------------|

[7]  
 
 e|-----------------------------------/11~---------------10---------------8---|
 B|6--7--8--7--6--------------------------------------------------------------|
 G|---------------8--5--------------------------------------------------------|
 D|---------------------------------------------------------------------------|
 A|---------------------------------------------------------------------------|
 E|---------------------------------------------------------------------------|

8
 
 e|-----8--------11/13-------11---8-------------------------------------------|
 B|-----------------------------------10h11-/13\-----10---8-------------------|
 G|-----------------------------------------------------------10-------8------|
 D|---------------------------------------------------------------------------|
 A|---------------------------------------------------------------------------|
 E|---------------------------------------------------------------------------|

VERSE 4 -- 14 Bars (Bass Solo)
CHORUS 4 -- 16 Bars (cont')
VERSE 5 -- 14 Bars
pu
 
 e|-----------------------------------------------------------------8----11---|
 B|---------------------------------------------------------------------------|
 G|---------------------------------------------------------------------------|
 D|---------------------------------------------------------------------------|
 A|---------------------------------------------------------------------------|
 E|---------------------------------------------------------------------------|

[1]  
 
 e|13---------8------11-------------------------------------------------------|
 B|----------------------8----------------------------------------------------|
 G|--------------------------------------------------8----------10------------|
 D|-------------------------------------------10------------------------------|
 A|---------------------------------------------------------------------------|
 E|---------------------------------------------------------------------------|

[2]  
 
 e|---------------------------------------------------------------------------|
 B|7----------------------------8\7-------------------------------------------|
 G|---------------8-----10-------------------------------8----------10--------|
 D|--------10------------------------------10--\9-----------------------------|
 A|---------------------------------------------------------------------------|
 E|---------------------------------------------------------------------------|

[3]  
 
 e|---------------------------------------------------------------------------|
 B|8-----------------------------8-----------------------------8--------------|
 G|---------------8------10---------------------8----p9-----------------------|
 D|--------10----------------------------10----------------------------10-----|
 A|---------------------------------------------------------------------------|
 E|---------------------------------------------------------------------------|

[4]  
 
 e|------------------------------------------------8---11---8-------11--------|
 B|------8---9---10---8---8------------8---9---11-----------------------------|
 G|10--------------------------9---10-----------------------------------------|
 D|---------------------------------------------------------------------------|
 A|---------------------------------------------------------------------------|
 E|---------------------------------------------------------------------------|

[5]  
 
 e|8p10------8-----------------------11---8-----------------------------------|
 B|----------------11------10---9-------------9---8-------------11------8-----|
 G|----------------------------------------------------10---------------------|
 D|---------------------------------------------------------------------------|
 A|---------------------------------------------------------------------------|
 E|---------------------------------------------------------------------------|

[6]  
 
 e|---------------------------------------------------------------------------|
 B|---------------------------------8--8--8---8-8-8-8-8-8-8--8----------------|
 G|8---8--------------------------------------------------------------10------|
 D|---------------------------------------------------------------------------|
 A|---------------------------------------------------------------------------|
 E|---------------------------------------------------------------------------|

[7]  
 
 e|---------------------------------------------------------------------------|
 B|-----------------------------8------9--------------------------------------|
 G|8-8p-------9---------------------------------------7-----------------------|
 D|------------------------------------------------------------9--------------|
 A|---------------------------------------------------------------------------|
 E|---------------------------------------------------------------------------|

8
 
 e|---------------------------------------------------------------------------|
 B|--------------------------------8-------------------9----------------6-----|
 G|----------------------8-------------------10------------------7------------|
 D|7---------10---------------------------------------------------------------|
 A|---------------------------------------------------------------------------|
 E|---------------------------------------------------------------------------|

[9]  
 
 e|---------------------------------------------------------------------------|
 B|-------8----------------6----------------------------------9-----8---------|
 G|8--------------7------------8---7--------------7----10-----------------10--|
 D|---------------------------------------9---8-------------------------------|
 A|---------------------------------------------------------------------------|
 E|---------------------------------------------------------------------------|

10
 
 e|--------------------------------------10------13----12--------/11----p8----|
 B|--------------------------------11--------------------------------------9--|
 G|8-------------------------12---------------------------------------------9-|
 D|--------10----10-----------------------------------------------------------|
 A|---------------------------------------------------------------------------|
 E|---------------------------------------------------------------------------|

[11]  
 
 e|------------------------------8--11--8--9--10--------------8--11--8--9--10-|
 B|------------------8----------------------------11--------9-----------------|
 G|p8--------------------9---10--------------------------10-------------------|
 D|-------11---10-------------------------------------------------------------|
 A|---------------------------------------------------------------------------|
 E|---------------------------------------------------------------------------|

[12]  
 
 e|-----------------------8--11--8--9--10-------------------------------------|
 B|11-------------------9------------------11----------------11---------9-----|
 G|------------------10-------------------------------------------------------|
 D|---------------------------------------------------------------------------|
 A|---------------------------------------------------------------------------|
 E|---------------------------------------------------------------------------|

[13]  
 
 e|---------------------------------------------------------------------------|
 B|8-------------8--------8--------8--------8--------8------------------------|
 G|---------------------------------------------------------------8----h9-----|
 D|---------------------------------------------------------------------------|
 A|---------------------------------------------------------------------------|
 E|---------------------------------------------------------------------------|

[14]  
 
 e|-----------------------8--------8~-----------------------------------------|
 B|---------------8---10------10------------8---------------------------------|
 G|-----------/9----------------------------------10-----8-----h9-------------|
 D|10--10--------------------------------------------------------------10-----|
 A|---------------------------------------------------------------------------|
 E|---------------------------------------------------------------------------|

[1]  
 
 e|---------------------------------------------------8----9----11----9---8---|
 B|11\10------8------8---------------------8---11-----------------------------|
 G|--------------------------10-----9-----------------------------------------|
 D|---------------------------------------------------------------------------|
 A|---------------------------------------------------------------------------|
 E|---------------------------------------------------------------------------|

[2]  
 
 e|------------------------------------------------8-----11----8----------8---|
 B|11-----9----------8h9p8----------8----9----11-----------------11----9------|
 G|---------------------------10----------------------------------------------|
 D|------------10-------------------------------------------------------------|
 A|---------------------------------------------------------------------------|
 E|---------------------------------------------------------------------------|

[3]  
 
 e|10----8--------------------------------------------------------------------|
 B|------------8-----11------9--------------8---------------------------------|
 G|-----------------------------------------------10----8---7-----------------|
 D|---------------------------------10---------------------------8-----10-----|
 A|---------------------------------------------------------------------------|
 E|---------------------------------------------------------------------------|

[4]  
 
 e|---------------------------------------------------------------------------|
 B|--------------------------8h9p8--------------------------------------------|
 G|8-------------8-----10------------10----8-----------7----------------------|
 D|-------10------------------------------------10----------10-----9------9---|
 A|---------------------------------------------------------------------------|
 E|---------------------------------------------------------------------------|

[5]  
 
 e|---------------------------------------------------------------------------|
 B|---------------------------------------------------------------------------|
 G|8---------------------------------------7--------7-------------------------|
 D|----------------------------10\--------------------------------------------|
 A|---------------------------------------------------------------------------|
 E|---------------------------------------------------------------------------|

[6]  
 
 e|---------------------------------------------------------------------------|
 B|----------------------------------------8-------8--------------------------|
 G|---------------------7---------8-------------------------------------------|
 D|--------10-----------------------------------------------------------------|
 A|---------------------------------------------------------------------------|
 E|---------------------------------------------------------------------------|

[7]  
 
 e|----------------------------8-------11~--------------10~-------------------|
 B|--------8----------10------------------------------------------------------|
 G|---------------------------------------------------------------------------|
 D|---------------------------------------------------------------------------|
 A|---------------------------------------------------------------------------|
 E|---------------------------------------------------------------------------|

8
 
 e|---------------------------------------------------------------------------|
 B|-----------------8----11---8--------------------------------6~-------------|
 G|------9--10--11---------------11--p10--8----------8-------------------8----|
 D|10----------------------------------------10-------------------------------|
 A|---------------------------------------------------------------------------|
 E|---------------------------------------------------------------------------|

[9]  
 
 e|---------------------------------------------------------------------------|
 B|-----------------8----11---8-----------------------------------------------|
 G|------9--10--11---------------11--10--8------------------------------8-----|
 D|10----------------------------------------10-------8--------10-------------|
 A|---------------------------------------------------------------------------|
 E|---------------------------------------------------------------------------|

10
 
 e|---------------------------------------------------------------------------|
 B|-----------------8----11---8------------------------------6--h7p6-----6----|
 G|------9--10--11---------------11--p10--8----------8---------------8--------|
 D|10----------------------------------------10-------------------------------|
 A|---------------------------------------------------------------------------|
 E|---------------------------------------------------------------------------|

[11]  
 
 e|-----------------------------------------------------------8---------------|
 B|-----------------8----11---8-----------------------------8---8-------------|
 G|------9--10--11---------------11--p10--8------9--10--11--------11--10--8---|
 D|10----------------------------------------10-------------------------------|
 A|---------------------------------------------------------------------------|
 E|---------------------------------------------------------------------------|

[12]  
 
 e|--------------------------------8--11--8--13--11--8------------------------|
 B|-----------------------------------------------------11--8-----------------|
 G|--------8------10-------------------------------------------11--10--8------|
 D|10----------------------10---------------------------------------------10--|
 A|---------------------------------------------------------------------------|
 E|---------------------------------------------------------------------------|

[13]  
 
 e|--------------------------/15\-------8--11--8--13--11--8-------------------|
 B|---------------------------------------------------------11--8-------------|
 G|--------------8-------------------------------------------------11--10--8--|
 D|8-----10-------------------------------------------------------------------|
 A|---------------------------------------------------------------------------|
 E|---------------------------------------------------------------------------|

repeat with subtle variation and FADE OUT!
| / slide up
| \ slide down
| h hammer-on
| p pull-off
| ~ vibrato
| + harmonic
| x Mute note
===============================================================================

Important: The song above is NOT stored on the Chordie server. The original song is hosted at www.guitaretab.com. Chordie works as a search engine and provides on-the-fly formatting. Chordie does not index songs against artists'/composers' will. To remove this song please click here.

Text color:
Chord color:
Chord grids: 
Font size:    
Page size: 

Am7 Fm Fm7 G7
Rate #1 of 1 versions

Jango Player

Login - add to songbook

SHARE PAGE  




You need to log in to post comments