Guitar Tabs, Chords and Lyrics
Major upgrade!! After one year development the new version of Chordie is now online! Please give feedback.


When Push Comes to Shove  Grateful Dead

 
 -------------------------------------------------------------------------------

WHEN PUSH COMES TO SHOVE - Grateful Dead
 
 -------------------------------------------------------------------------------

Tabbed by: Bizzy5285
Email: michael.byrwa@gmail.com
Tuning: standard
Intro: D A
 
 e|---------------------------------------------------------------------------|
 B|---------------------------------------------------------------------------|
 G|---------------------------------------------------------------------------|
 D|---------------------2-----------------------------------------------------|
 A|--3-/-5--5-2--2-5--5----3-/-5--5-2--2-0--3-/-5--5-2--2-5--0-3--5--3-2--0---|
 E|---------------------------------------------------------------------------|

[D]Shaking in the forest, what have you to fear?
[D]Here there may be tigers, to punch you in the ear.
[G]Gloves of stainless steel, [A]bats carved out of brick
[D]Knock you down and beat you up and [G]give your ass a kick.
When [D]push comes to shove,[A] you're afraid of [D]love.
Shaking in the desert, wherefore do you cry?
Here there may be rattlesnakes, to punch you in the eye.
Shotgun's full of silver, bullet's made of glass
String barbed wire at your feet and do not let you pass.
When push comes to shove, you're afraid of love.
[G]When push comes to [A]shove,
[D]When push comes to [B7]shove,
[E]You're afraid of love,
[A]When push comes to [D]shove.
Solo: D
 
 e|---------------------------------------------------------------------------|
 B|--------------15--15----15-15--15---15-15--15------------------------------|
 G|--------14-16--------16-------------14-14-----17-16-14---------------------|
 D|--14/16--------------------------------------------------------------------|
 A|---------------------------------------------------------------------------|
 E|---------------------------------------------------------------------------|

[D]  
 
 e|---------------------------------------------------------------------------|
 B|---------------------------------------------------------------------------|
 G|--9b11r9--7-----7-7--7------7--7-------------------------------------------|
 D|------------7h9--------9--7------10--9-7-----------------------------------|
 A|---------------------------------------------------------------------------|
 E|---------------------------------------------------------------------------|

[D]  
 
 e|---------------------------------------------------------------------------|
 B|--------------15--15----15-15--15---15-15--15------------------------------|
 G|--------14-16-14--14-16-14-14--14---14-14-----17--16-14--------------------|
 D|--14/16--------------------------------------------------------------------|
 A|---------------------------------------------------------------------------|
 E|---------------------------------------------------------------------------|

D (----) not sure!
 
 e|-------7-------------------------------------------------------------------|
 B|---------7-----------------------15--15--13--12---12-----------------------|
 G|--9b11-----9-7-------7-----------14--14--13--12----------------------------|
 D|---------------9-7h9---9--/--14--------------------------------------------|
 A|---------------------------------------------------------------------------|
 E|---------------------------------------------------------------------------|

[G]let ring-) [A]let ring[D]
 
 e|-----------------15---------------17------17-19--21r19--17-14--------------|
 B|--12-----12-/-15----------14-/-17-----19-----------------------------------|
 G|------12--------------14---------------------------------------------------|
 D|---------------------------------------------------------------------------|
 A|---------------------------------------------------------------------------|
 E|---------------------------------------------------------------------------|

[G] [D]  
 
 e|--13-----------------15-14-13/------15-------------------------------------|
 B|-----15-14-13-12--15-------------------17b19--19r17-15-17b19--19r17-15-----|
 G|---------------------------------------------------------------------------|
 D|---------------------------------------------------------------------------|
 A|---------------------------------------------------------------------------|
 E|---------------------------------------------------------------------------|

[A] [D]  
 
 e|------------------17--15---------------------------------------------------|
 B|--------------------------17b19r17-15--------------------------------------|
 G|--16-15-14--/--18------------------------/7-7--7-------7--7--7-------------|
 D|-----------------------------------------/7-7--7-9-7-9-7--7--7-------------|
 A|---------------------------------------------------------------------------|
 E|---------------------------------------------------------------------------|

[D]Shaking in the bedroom, covers on your head
[D]Cringing like a baby at the hand beneath the bed?
[G]Phantom in the closet, [A]scratching at the door,
[D]The latest mystery killer you [G]saw on channel four.
When [D]push comes to shove,[A] you're afraid of [D]love.
Shaking in the garden, the fear within you grows,
Here there may be roses, to punch you in the nose.
Twist their arms around you, slap you till you cry,
Wrap you in their sweet perfume and love you till you die
When Push Comes To Shove, you're afraid of love
[G]When push comes to [A]shove
[D]When push comes to [B7]shove
[E]You're afraid of love
[A]When push comes to [D]shove
Outro Riff: D D
 
 e|---------------------------------------------------------------------------|
 B|---------------------------------------------------------------------------|
 G|--9b11--9b11r9-7---7---------7--7~~~~~~~~~~--------------------------------|
 D|-----------------9---7h9p7h9-----------------------------------------------|
 A|---------------------------------------------------------------------------|
 E|---------------------------------------------------------------------------|

Please send comments, I know it's not all exactly right but it's pretty close!
| / slide up
| \ slide down
| h hammer-on
| p pull-off
| ~ vibrato
| + harmonic
| x Mute note
===============================================================================

Important: The song above is NOT stored on the Chordie server. The original song is hosted at www.guitaretab.com. Chordie works as a search engine and provides on-the-fly formatting. Chordie does not index songs against artists'/composers' will. To remove this song please click here.

Text color:
Chord color:
Chord grids: 
Font size:    
Page size: 

A B7 D E G
Rate #1 of 2 versions

Login - add to songbook

SHARE PAGE  



You need to log in to post comments