Guitar Tabs, Chords and Lyrics
Server problems seems to be fixed. Chordie has been experiencing problems with songs disappearing. These issues now seems to be fixed, but still verifying the fix. If you find anything strange, please email admin@chordie.com.


Mountains of the Moon  Grateful Dead

Mountains of the Moon - AoxomoxoA
(As a note, all of the G/B and C/G type chords I just play the regular G and C and
it sounds just fine to me, but if you want to get technical this is what Bobby plays)
Intro:
 
 |---------3-------|
 |---------3-------|
 |-----2-------2---|
 |---0-0-0---0-0-0-|
 |-2---------------|
 |-3-------3-------|

[G]Cold mountain water, th[F]e jade merchant'[Dm]s daughter,[G]
[G]Mountains of the moon, elec[F]tra bow and bend to m[Dm]e.[G]
[G]Hi ho the carri[F]on crow fol de rol [Dm]de riddle[G]
[G]Hi ho the carrio[F]n crow bow and bend[Dm] to me.[G]
 
 |------------|----------------|
 |------------|---------3------|
 |------------|--0------0------|
 |------------|--0-----------2-|
 |-2h3p2---0--|--2--0--------3-|
 |------------|-3-----3----3---|

[C]Hey, Tom Banjo [G]hey a la[C]urel, mo[G]re than la[Dm]urel you say sow.[G]
[Dm]More than laurel you may[G] sow.
[Dm7]Hey, the l[C]aurel, he[G/B]y the city[Am] in[D/F#] the ra[G]in,
[C]Hey, he[G/B]y, h[F]ey the wild [C/G]wheat waving in[G/F] the wind[Em].[Dm7]
 
 |------------------|------------------|
 |------------------|------------------|
 |------------------|------------------|
 |-3p2h3p2-0--------|------------------|
 |-----------3-0----|-----0---3--------|
 |----------------1-|-------1---1-0----|

[G]Twenty degrees of solitude, t[F]wenty degrees [Dm]in all,[G]
[G]All the dancing kings and wives a[F]ssembled in the hall.[Dm] [G]
[G]Lost is the long and loneliest [F]town fairly sybil flyi[Dm]ng.[G]
[G]All along the, all a[F]long the mountains o[Dm]f the moon.[G]
 
 |------------|----------------|
 |------------|---------3------|
 |------------|--0------0------|
 |------------|--0-----------2-|
 |-2h3p2---0--|--2--0--------3-|
 |------------|-3-----3----3---|

[C]Hey, Tom Banjo [G]it's tim[C]e to matter,[G]
[Dm]The earth will see you on through this[G] time,
[Dm]The earth will see you on through this[G] time.
[Dm7]Down by the water[C], the Marsh Kin[G/B]g's daughter, did y[Am]ou know?[D/F#] [G]
[C]Clothed in tatte[G/B]rs alway[F]s will be. [C/G]Tom, wher[G/F]e did you go?[Em] [Dm7]
 
 |------------------|------------------|
 |------------------|------------------|
 |------------------|------------------|
 |-3p2h3p2-0--------|------------------|
 |-----------3-0----|-----0---3--------|
 |----------------1-|-------1---1-0----|

[G]Mountains of the moon, Electra, moun[F]tains of the m[Dm]oon,[G]
[G]All along the, all al[F]ong the mountains o[Dm]f the moon.[G]
[G]Hi ho the carri[F]on crow fol de rol [Dm]de riddle[G]
[G]Hi ho the carrio[F]n crow bow and bend[Dm] to me,[G]
[G]Bend to me. [Dm]Na da da da da da da da da da da da.

Important: The song above is NOT stored on the Chordie server. The original song is hosted at www.guitaretab.com. Chordie works as a search engine and provides on-the-fly formatting. Chordie does not index songs against artists'/composers' will. To remove this song please click here.

Text color:
Chord color:
Chord grids: 
Font size:    
Page size: 

Am C C/G D/F# Dm Dm7 Em F G G/B G/F
Rate #3 of 9 versions

Login - add to songbook

SHARE PAGE  



You need to log in to post comments