Guitar Tabs, Chords and Lyrics
Server problems seems to be fixed. Chordie has been experiencing problems with songs disappearing. These issues now seems to be fixed, but still verifying the fix. If you find anything strange, please email admin@chordie.com.


All Over Now  Great White

 
 -----------------------------------------------------------------------------

All Over Now - Great White (GUITAR)
 
 -----------------------------------------------------------------------------

Tabbed by: Scotto10
Tuning: Standard
=============================================================================
Guitar - rhythm
PM PM PM PM PM PM
Q E E E E E E Q E E E E E E
 
 E||---------------------------|---------------------------|
 B||--10--------9-----7--------|--10--------9-----7--------|
 G||---9b-------9-----7--------|---9b-------9-----7--------|
 D||---------------------9-----|---------------------9-----|
 A||---------------------------|---------------------------|
 E||---------7-----7--------7--|---------7-----7--------7--|

PM PM PM PM PM
Q E E E E E E Q E E E E Q Q E Q E
 
 ---------------------------|---------------------|-----------------------|
 --10--------9-----7--------|--10--------9-----7--|-------7----x----------|
 ---9b-------9-----7--------|---9b-------9-----7--|-------7----x----------|
 ---------------------9-----|---------------------|------------x--7----9--|
 ---------------------------|---------------------|---------------7----9--|
 ---------7-----7--------7--|---------7-----7-----|--7--------------------|

PM PM
H. E E E E Q E Q E H. E E
 
 ----------------------|------------------------|---------------------|
 ----------------------|--------3----x----------|---------------------|
 -------------------x--|--------2----x--2----4--|--L------------------|
 --L------------9\--x--|----------------2----4--|--L------------------|
 --L------------9\-----|--2--2------------------|---------------2--0--|
 ----------------------|------------------------|---------------------|

PM PM PM PM
E E Q E Q E H E E Q E E Q S S Q E
 
 ------------------------|----------------------|-------------------------|
 --------3----x----------|--------------x--3----|--------3----x-x---------|
 --------2----x--2----4--|--L--------L--x--2----|--------2----x-x-2----4--|
 ----------------2----4--|--L--------L--x-------|-----------------2----4--|
 ------------------------|----------------------|--2--2-------------------|
 --3--3------------------|----------------------|-------------------------|

W E E Q E Q E E E Q E Q E
 
 -------------------|-------------------------|-------------------------|
 -------------------|-------------------------|-------------------------|
 --L----------------|--2h--4-------4-------2--|--Lh--4-------4-------2--|
 --L----------------|--2h--4-------4-------2--|--Lh--4-------4-------2--|
 -------------------|--2-----------2-------2--|--L-----------2-------2--|
 -------------------|-------------------------|-------------------------|

E E Q E Q E E E Q Q Q E E Q E Q E
 
 -------------------------|-------------------------|-------------------------|
 -------------------------|--------------3----3~----|-------------------------|
 --Lh--4-------4-------2--|--Lh--4-------2----2~----|--2h--4-------4-------2--|
 --Lh--4-------4-------2--|--Lh--4------------------|--2h--4-------4-------2--|
 --L-----------2-------2--|--L----------------------|--2-----------2-------2--|
 -------------------------|-------------------------|-------------------------|

E E Q E Q E E E Q E Q E E E Q Q Q
 
 -------------------------|-------------------------|-------------------------|
 -------------------------|-------------------------|--------------3----3~----|
 --Lh--4-------4-------2--|--Lh--4-------4-------2--|--Lh--4-------2----2~----|
 --Lh--4-------4-------2--|--Lh--4-------4-------2--|--Lh--4------------------|
 --L-----------2-------2--|--2-----------2-------2--|--L----------------------|
 -------------------------|-------------------------|-------------------------|

PM
H. E E Q E E E Q E H. E E
 
 ------------------3--|--L----------------------|---------------------|
 ------------------3--|--L----3-----3s--5-------|---------------------|
 ---------------------|-------2-----2s--4-------|---------------------|
 ---------------------|-------------------------|------------------5--|
 --2------------L-----|-------------------------|--2------------L-----|
 --0------------L-----|----------------------0--|--0------------L-----|

PM PM PM
E E E E Q. E E E Q E Q E E E Q E Q E
 
 -------------------------|-------------------------|-------------------------|
 -------------------------|-------------------------|-------------------------|
 -------------------------|--2h--4-------4-------2--|--Lh--4-------4-------2--|
 --L----------------------|--2h--4-------4-------2--|--Lh--4-------4-------2--|
 --------7-----5~---------|--2-----------2-------2--|--L-----------2-------2--|
 -----0-----0----------0--|-------------------------|-------------------------|

E E Q E E E E H. E E W
 
 ---------------------------|---------------------|-------------------|
 --------------3------------|---------------------|-------------------|
 --Lh--4-------2-----2s--4--|--4------------L-----|--0----------------|
 --Lh--4-------------2s--4--|--4------------L-----|--0----------------|
 --2------------------------|--2------------L--0--|-------------------|
 ---------------------------|---------------------|--3----------------|

E. E. Q. Q W E E E E E E E E
 
 ----------------------|-------------------|-----5--------5-----5--5--|
 --3---3---2------3----|-------------------|-----5--------5-----5--5--|
 --0---0---0------0----|--2----------------|-----6--------6-----6--6--|
 --0---L---L------L----|--2----------------|-----7--------7-----7--7--|
 ----------------------|--0----------------|--------------------------|
 --3---L---L------3----|-------------------|--5-----5--5-----5--------|

PM PM PM PM
E E E E E E E E H. E E H Q E E
 
 --------------------------|---------------------|----------------------|
 --------7-----9--7--------|---------------------|----------------------|
 --------7-----9--7-----7--|--L---------------7--|--L--------L-------9--|
 -----------------------5--|--L---------------7--|--L--------L-------7--|
 --------------------------|---------------0--5--|--L--------L----0-----|
 --7--7--------------------|---------------------|----------------------|

PM PM PM
H E E E E E E E E E E E E H. E E
 
 -----------------------|--------------------------|---------------------|
 -----------------------|--------7-----9--7-----8--|---------------------|
 --L--------L-----9-----|--------7-----9--7-----7--|--L---------------7--|
 --L--------L-----7-----|-----------------------5--|--L---------------7--|
 --------------0-----0--|--------------------------|---------------0--5--|
 -----------------------|--7--7--------------------|---------------------|

PM PM PM
H Q E E H E E Q Q Q E Q E
 
 ----------------------|------------------------|-----------------------|
 ----------------------|------------------------|-------7----x----------|
 --L--------L-------9--|--L--------------11\----|-------7----x----------|
 --L--------L-------7--|--L---------------9\----|------------x--7----9--|
 --L--------L----0-----|-----------0--0---------|---------------7----9--|
 ----------------------|------------------------|--7--------------------|

H. E E Q Q E Q E H. E E
 
 ----------------------|-----------------------|----------------------|
 ----------------------|-------7----x----------|----------------------|
 -------------------x--|-------7----x----------|-------------------x--|
 --L------------9\--x--|------------x--7----9--|--L------------9\--x--|
 --L------------9\-----|---------------7----9--|--L------------9\-----|
 ----------------------|--7--------------------|----------------------|

E E Q E Q E E E Q E Q E E E Q E Q E
 
 -------------------------|-------------------------|-------------------------|
 -------------------------|-------------------------|-------------------------|
 --2h--4-------4-------2--|--Lh--4-------4-------2--|--Lh--4-------4-------2--|
 --2h--4-------4-------2--|--Lh--4-------4-------2--|--Lh--4-------4-------2--|
 --2-----------2-------2--|--L-----------2-------2--|--L-----------2-------2--|
 -------------------------|-------------------------|-------------------------|

E E Q Q Q E E Q E Q E E E Q E Q E
 
 -------------------------|-------------------------|-------------------------|
 --------------3----3~----|-------------------------|-------------------------|
 --Lh--4-------2----2~----|--2h--4-------4-------2--|--Lh--4-------4-------2--|
 --Lh--4------------------|--2h--4-------4-------2--|--Lh--4-------4-------2--|
 --L----------------------|--2-----------2-------2--|--L-----------2-------2--|
 -------------------------|-------------------------|-------------------------|

E E Q E Q E E E Q Q Q H. E E
 
 -------------------------|-------------------------|------------------3--|
 -------------------------|--------------3----3~----|------------------3--|
 --Lh--4-------4-------2--|--Lh--4-------2----2~----|---------------------|
 --Lh--4-------4-------2--|--Lh--4------------------|---------------------|
 --2-----------2-------2--|--L----------------------|--2------------L-----|
 -------------------------|-------------------------|--0------------L-----|

PM PM PM PM
Q E E E Q E H. E E E E E E Q. E
 
 --L----------------------|---------------------|-------------------------|
 --L----3-----3s--5-------|---------------------|-------------------------|
 -------2-----2s--4-------|---------------------|-------------------------|
 -------------------------|------------------5--|--L----------------------|
 -------------------------|--2------------L-----|--------7-----5~---------|
 ----------------------0--|--0------------L-----|-----0-----0----------0--|

E E Q E Q E E E Q E Q E E E Q E E E E
 
 -------------------------|-------------------------|---------------------------|
 -------------------------|-------------------------|--------------3------------|
 --2h--4-------4-------2--|--Lh--4-------4-------2--|--Lh--4-------2-----2s--4--|
 --2h--4-------4-------2--|--Lh--4-------4-------2--|--Lh--4-------------2s--4--|
 --2-----------2-------2--|--L-----------2-------2--|--2------------------------|
 -------------------------|-------------------------|---------------------------|

H. E E W E. E. Q. Q
 
 ---------------------|-------------------|----------------------|
 ---------------------|-------------------|--3---3---2------3----|
 --4------------L-----|--0----------------|--0---0---0------0----|
 --4------------L-----|--0----------------|--0---L---L------L----|
 --2------------L--0--|-------------------|----------------------|
 ---------------------|--3----------------|--3---L---L------3----|

PM PM
W E E E E E E E E E E E E E E E E
 
 -------------------|-----5--------5-----5--5--|--------------------------|
 -------------------|-----5--------5-----5--5--|--------7-----9--7--------|
 --6----------------|-----6--------6-----6--6--|--------7-----9--7-----7--|
 --7----------------|-----7--------7-----7--7--|-----------------------5--|
 --7----------------|--------------------------|--------------------------|
 --5----------------|--5-----5--5-----5--------|--7--7--------------------|

PM PM
H. E E H Q E E H E E E E
 
 ---------------------|----------------------|-----------------------|
 ---------------------|----------------------|-----------------------|
 --L---------------7--|--L--------L-------9--|--L--------L-----9-----|
 --L---------------7--|--L--------L-------7--|--L--------L-----7-----|
 ---------------0--5--|--L--------L----0-----|--------------0-----0--|
 ---------------------|----------------------|-----------------------|

PM PM PM PM
E E E E E E E E H. E E H Q E E
 
 --------------------------|---------------------|----------------------|
 --------7-----9--7-----8--|---------------------|----------------------|
 --------7-----9--7-----7--|--L---------------7--|--L--------L-------9--|
 -----------------------5--|--L---------------7--|--L--------L-------9--|
 --------------------------|---------------0--5--|--L--------L----0--7--|
 --7--7--------------------|---------------------|-------------------0--|

PM PM PM PM PM PM
H E E E E E E E E E E E E H. E E
 
 -----------------------|--------------------------|---------------------|
 -----------------------|--------7-----9--7--------|---------------------|
 --L--------------------|--------7-----9--7-----7--|--L---------------7--|
 --L--------------9-----|-----------------------5--|--L---------------7--|
 --L--------------7-----|--------------------------|---------------0--5--|
 --L--------0--0-----0--|--7--7--------------------|---------------------|

PM PM PM
H Q E E H E E E E E E E E E E E E
 
 ----------------------|-----------------------|--------------------------|
 ----------------------|-----------------------|--------7-----9--7-----8--|
 --L--------L-------9--|--L--------L-----9-----|--------7-----9--7-----7--|
 --L--------L-------7--|--L--------L-----7-----|-----------------------5--|
 --L--------L----0-----|--------------0-----0--|--------------------------|
 ----------------------|-----------------------|--7--7--------------------|

PM PM PM PM
H. E E H Q E E H E E Q
 
 ---------------------|----------------------|------------------------|
 ---------------------|----------------------|------------------------|
 --L---------------7--|--L--------L-------9--|--L--------------11\----|
 --L---------------7--|--L--------L-------7--|--L---------------9\----|
 ---------------0--5--|--L--------L----0-----|-----------0--0---------|
 ---------------------|----------------------|------------------------|

PM PM
Q Q E Q E H. E E E E Q E Q E
 
 -----------------------|----------------------|------------------------|
 -------7----x----------|----------------------|--------7----x----------|
 -------7----x----------|-------------------x--|--------7----x----------|
 ------------x--7----9--|--L------------9\--x--|-------------x--7----9--|
 ---------------7----9--|--L------------9\-----|----------------7----9--|
 --7--------------------|----------------------|--7--7------------------|

H. E E W H H
 
 ----------------------|-------------------|--------------------|
 ----------------------|-------------------|--------------------|
 -------------------x--|--6----------------|--7--------6--------|
 --L------------9\--x--|--7----------------|--7--------7--------|
 --L------------9\-----|--7----------------|--7--------7--------|
 ----------------------|--5----------------|--5--------5--------|

W W W
 
 -------------------|-------------------|-------------------|
 -------------------|-------------------|-------------------|
 --0----------------|--L----------------|--6----------------|
 --0----------------|--L----------------|--7----------------|
 -------------------|-------------------|--7----------------|
 --3----------------|--L----------------|--5----------------|

H H W H H
 
 --------------------|-------------------|--------------------|
 --------------------|-------------------|--------------------|
 --7--------6--------|--0----------------|--7--------6--------|
 --7--------7--------|--0----------------|--4--------4--------|
 --7--------7--------|-------------------|--------------------|
 --5--------5--------|--3----------------|--------------------|

PM PM PM PM PM PM PM
E E E E E E E E E E E E E E E E W
 
 --------------------------|---------------------------|-------------------|
 --------------------------|---------------------------|-------------------|
 --------4-----2--4-----4--|--Lh--4--4-----2--4--------|--2----------------|
 --------4-----2--4-----4--|--Lh--4--4-----2--4-----2--|--2----------------|
 --2--2--2--2--0--2--2--2--|--L------2--2--0--2--2--0--|--0----------------|
 --------------------------|---------------------------|-------------------|

PM PM PM PM PM PM PM
W E E E E E E E E E E E E E E E E
 
 -------------------|--------------------------|---------------------------|
 -------------------|--------------------------|---------------------------|
 --2----------------|--------4-----2--4-----4--|--Lh--4--4-----2--4--------|
 --2----------------|--------4-----2--4-----4--|--Lh--4--4-----2--4-----2--|
 --0----------------|--2--2--2--2--0--2--2--2--|--L------2--2--0--2--2--0--|
 -------------------|--------------------------|---------------------------|

PM PM PM PM
W W E E E E E E E E
 
 -------------------|-------------------|--------------------------|
 --3----------------|-------------------|--------------------------|
 --2----------------|--2----------------|--------4-----2--4-----4--|
 --0----------------|--2----------------|--------4-----2--4-----4--|
 -------------------|--0----------------|--2--2--2--2--0--2--2--2--|
 -------------------|-------------------|--------------------------|

PM PM
E E E E E E E E W W
 
 ---------------------------|-------------------|-------------------|
 ---------------------------|-------------------|-------------------|
 --Lh--4--4-----2--4-----4--|--0----------------|--L----------------|
 --Lh--4--4-----2--4-----4--|--0----------------|--L----------------|
 --L------2--2--0--2--2--2--|-------------------|-------------------|
 ---------------------------|--3----------------|--L----------------|

W W W
 
 -------------------|-------------------|-------------------|
 --3----------------|--L----------------|--5----------------|
 --2----------------|--L----------------|--4----------------|
 --0----------------|--L----------------|--2----------------|
 -------------------|-------------------|-------------------|
 -------------------|-------------------|-------------------|

PM PM PM
E E E E E E E E E E E E E E E E H. E E
 
 --------------------------|--------------------------|---------------------|
 -----7--7--7--7--7--7--7--|--------7-----9--7--------|---------------------|
 -----6--6--6--6--6--6--6--|--------7-----9--7-----7--|--L---------------7--|
 -----4--4--4--4--4--4--4--|-----------------------5--|--L---------------7--|
 --------------------------|--------------------------|---------------0--5--|
 --------------------------|--7--7--------------------|---------------------|

PM PM PM
H Q E E H E E E E E E E E E E E E
 
 ----------------------|-----------------------|--------------------------|
 ----------------------|-----------------------|--------7-----9--7-----8--|
 --L--------L-------9--|--L--------L-----9-----|--------7-----9--7-----7--|
 --L--------L-------7--|--L--------L-----7-----|-----------------------5--|
 --L--------L----0-----|--------------0-----0--|--------------------------|
 ----------------------|-----------------------|--7--7--------------------|

PM PM PM PM PM
H. E E H Q E E H E E E E
 
 ---------------------|----------------------|-----------------------|
 ---------------------|----------------------|-----------------------|
 --L---------------7--|--L--------L-------9--|--L--------------------|
 --L---------------7--|--L--------L-------9--|--L--------------9-----|
 ---------------0--5--|--L--------L----0--7--|--L--------------7-----|
 ---------------------|-------------------0--|--L--------0--0-----0--|

PM PM PM PM
E E E E E E E E H. E E H Q E E
 
 --------------------------|---------------------|----------------------|
 --------7-----9--7--------|---------------------|----------------------|
 --------7-----9--7-----7--|--L---------------7--|--L--------L-------9--|
 -----------------------5--|--L---------------7--|--L--------L-------7--|
 --------------------------|---------------0--5--|--L--------L----0-----|
 --7--7--------------------|---------------------|----------------------|

PM PM PM
H E E E E E E E E E E E E H. E E
 
 -----------------------|--------------------------|---------------------|
 -----------------------|--------7-----9--7-----8--|---------------------|
 --L--------L-----9-----|--------7-----9--7-----7--|--L---------------7--|
 --L--------L-----7-----|-----------------------5--|--L---------------7--|
 --------------0-----0--|--------------------------|---------------0--5--|
 -----------------------|--7--7--------------------|---------------------|

PM PM PM PM PM
H Q E E H E E Q E E Q E Q E
 
 ----------------------|------------------------|------------------------|
 ----------------------|------------------------|--------3----x----------|
 --L--------L-------9--|--L--------------11\----|--------2----x--2----4--|
 --L--------L-------7--|--L---------------9\----|-------------x--2----4--|
 --L--------L----0-----|-----------0--0---------|--2--2------------------|
 ----------------------|------------------------|------------------------|

PM PM
H. E E E E Q E Q E H. E E
 
 ---------------------|------------------------|---------------------|
 ---------------------|--------3----x----------|---------------------|
 --L------------L--x--|--------2----x--2----4--|--L------------L--x--|
 --L------------L--x--|-------------x--2----4--|--L------------L--x--|
 ---------------------|--2--2------------------|---------------------|
 ---------------------|------------------------|---------------------|

PM PM PM PM
E E Q E Q E H. E E E E Q E Q E
 
 ------------------------|---------------------|------------------------|
 --------3----x----------|---------------------|--------3----x----------|
 --------2----x--2----4--|--L------------L--x--|--------2----x--2----4--|
 -------------x--2----4--|--L------------L--x--|-------------x--2----4--|
 --2--2------------------|---------------------|--2--2------------------|
 ------------------------|---------------------|------------------------|

PM PM PM PM PM PM PM PM
H. E E E E E E E E E E E E E E E E E E
 
 ---------------------|---------------------------|---------------------------|
 ---------------------|---------------------------|---------------------------|
 --L------------L--x--|--2h--4--------4--------2--|--Lh--4--------4--------2--|
 --L------------L--x--|--2h--4--------4--------2--|--Lh--4--------4--------2--|
 ---------------------|--2------2--2--2--2--2--2--|--L------2--2--2--2--2--2--|
 ---------------------|---------------------------|---------------------------|

PM PM PM PM PM PM PM PM
[E] [E] [E] [E] [E] [E] [E] [E] [E] [E] [E] [E] [E] [E] [E] [E]  
 
 ---------------------------|---------------------------|
 ---------------------------|---------------------------|
 --Lh--4--------4--------2--|--Lh--4--------4--------2--|
 --Lh--4--------4--------2--|--Lh--4--------4--------2--|
 --L------2--2--2--2--2--2--|--L------2--2--2--2--2--2--|
 ---------------------------|---------------------------|

PM PM PM PM PM PM PM PM
[E] [E] [E] [E] [E] [E] [E] [E] [E] [E] [E] [E] [E] [E] [E] [E]  
 
 ---------------------------|---------------------------|
 ---------------------------|---------------------------|
 --Lh--4--------4--------2--|--Lh--4--------4--------2--|
 --Lh--4--------4--------2--|--Lh--4--------4--------2--|
 --L------2--2--2--2--2--2--|--L------2--2--2--2--2--2--|
 ---------------------------|---------------------------|

PM PM PM PM PM PM
E E E E E E E E E E E E E E Q
 
 ---------------------------|--------------------------|
 ---------------------------|---------------3-----3----|
 --Lh--4--------4--------2--|--Lh--4--------2-----2----|
 --Lh--4--------4--------2--|--Lh--4--------0-----0----|
 --L------2--2--2--2--2--2--|--L------2--2-------------|
 ---------------------------|--------------------------|

PM PM PM PM PM PM PM PM
[E] [E] [E] [E] [E] [E] [E] [E] [E] [E] [E] [E] [E] [E] [E] [E]  
 
 ---------------------------|---------------------------|
 ---------------------------|---------------------------|
 --2h--4--------4--------2--|--Lh--4--------4--------2--|
 --2h--4--------4--------2--|--Lh--4--------4--------2--|
 --2------2--2--2--2--2--2--|--L------2--2--2--2--2--2--|
 ---------------------------|---------------------------|

PM PM PM PM PM PM PM PM
[E] [E] [E] [E] [E] [E] [E] [E] [E] [E] [E] [E] [E] [E] [E] [E]  
 
 ---------------------------|---------------------------|
 ---------------------------|---------------------------|
 --Lh--4--------4--------2--|--Lh--4--------4--------2--|
 --Lh--4--------4--------2--|--Lh--4--------4--------2--|
 --L------2--2--2--2--2--2--|--L------2--2--2--2--2--2--|
 ---------------------------|---------------------------|

PM PM PM PM PM PM PM PM
[E] [E] [E] [E] [E] [E] [E] [E] [E] [E] [E] [E] [E] [E] [E] [E]  
 
 ---------------------------|---------------------------|
 ---------------------------|---------------------------|
 --Lh--4--------4--------2--|--Lh--4--------4--------2--|
 --Lh--4--------4--------2--|--Lh--4--------4--------2--|
 --L------2--2--2--2--2--2--|--L------2--2--2--2--2--2--|
 ---------------------------|---------------------------|

PM PM PM PM
[E] [E] [E] [E] [E] [E] [E] [E]  
 
 ---------------------------||
 ---------------------------||
 --Lh--4--------4--------2--||
 --Lh--4--------4--------2--||
 --L------2--2--2--2--2--2--||
 ---------------------------||

====================================================================
====================================================================
====================================================================
Guitar - lead
 
 E||-------|-------|-------|-------|-------|-------|-------|-------|-------|
 B||-------|-------|-------|-------|-------|-------|-------|-------|-------|
 G||-------|-------|-------|-------|-------|-------|-------|-------|-------|
 D||-------|-------|-------|-------|-------|-------|-------|-------|-------|
 A||-------|-------|-------|-------|-------|-------|-------|-------|-------|
 E||-------|-------|-------|-------|-------|-------|-------|-------|-------|
 -------|-------|-------|-------|-------|-------|-------|-------|-------|-------|
 -------|-------|-------|-------|-------|-------|-------|-------|-------|-------|
 -------|-------|-------|-------|-------|-------|-------|-------|-------|-------|
 -------|-------|-------|-------|-------|-------|-------|-------|-------|-------|
 -------|-------|-------|-------|-------|-------|-------|-------|-------|-------|
 -------|-------|-------|-------|-------|-------|-------|-------|-------|-------|
 -------|-------|-------|-------|-------|-------|-------|-------|-------|-------|
 -------|-------|-------|-------|-------|-------|-------|-------|-------|-------|
 -------|-------|-------|-------|-------|-------|-------|-------|-------|-------|
 -------|-------|-------|-------|-------|-------|-------|-------|-------|-------|
 -------|-------|-------|-------|-------|-------|-------|-------|-------|-------|
 -------|-------|-------|-------|-------|-------|-------|-------|-------|-------|
 -------|-------|-------|-------|-------|-------|-------|-------|-------|-------|
 -------|-------|-------|-------|-------|-------|-------|-------|-------|-------|
 -------|-------|-------|-------|-------|-------|-------|-------|-------|-------|
 -------|-------|-------|-------|-------|-------|-------|-------|-------|-------|
 -------|-------|-------|-------|-------|-------|-------|-------|-------|-------|
 -------|-------|-------|-------|-------|-------|-------|-------|-------|-------|

PM
E H. E Q. Q E E E
 
 -------|--------------------------|---------------------------|
 -------|-----10b-------------Lpb--|---Lpb---------------------|
 -------|--------------------------|------------9b----7--9-----|
 -------|--------------------------|------------------------9--|
 -------|--------------------------|---------------------------|
 -------|--------------------------|---------------------------|

PH PH PH
E E H E E H. Q
 
 ---------------------------|-----------------------|-------|-------|-------|
 ---------------------------|-----------------------|-------|-------|-------|
 --7-----------------7--|--L\-----------------|-------|-------|-------|
 -------9--9--------L-------|-----------------------|-------|-------|-------|
 ---------------------------|-----------------------|-------|-------|-------|
 ---------------------------|-----------------------|-------|-------|-------|
 -------|-------|-------|-------|-------|-------|-------|-------|-------|-------|
 -------|-------|-------|-------|-------|-------|-------|-------|-------|-------|
 -------|-------|-------|-------|-------|-------|-------|-------|-------|-------|
 -------|-------|-------|-------|-------|-------|-------|-------|-------|-------|
 -------|-------|-------|-------|-------|-------|-------|-------|-------|-------|
 -------|-------|-------|-------|-------|-------|-------|-------|-------|-------|
 -------|-------|-------|-------|-------|-------|-------|-------|-------|-------|
 -------|-------|-------|-------|-------|-------|-------|-------|-------|-------|
 -------|-------|-------|-------|-------|-------|-------|-------|-------|-------|
 -------|-------|-------|-------|-------|-------|-------|-------|-------|-------|
 -------|-------|-------|-------|-------|-------|-------|-------|-------|-------|
 -------|-------|-------|-------|-------|-------|-------|-------|-------|-------|

E Q S S E E S S E
 
 -------|-------|-------|-------|--------------------------------|
 -------|-------|-------|-------|--------------------------------|
 -------|-------|-------|-------|-----9b----9p-7-9b--9b--9p-7----|
 -------|-------|-------|-------|-----------------------------9--|
 -------|-------|-------|-------|--------------------------------|
 -------|-------|-------|-------|--------------------------------|

W
 
 --------------------|-------|-------|-------|-------|-------|-------|-------|
 --------------------|-------|-------|-------|-------|-------|-------|-------|
 --------------------|-------|-------|-------|-------|-------|-------|-------|
 --L~----------------|-------|-------|-------|-------|-------|-------|-------|
 --------------------|-------|-------|-------|-------|-------|-------|-------|
 --------------------|-------|-------|-------|-------|-------|-------|-------|

PM PH
E H. E E Q E E E E E
 
 --------------------------|-------------------------------|
 -----10b-------------Lpb--|---Lpb-------------------------|
 --------------------------|--------9b----7--9-----7-----|
 --------------------------|--------------------9-------9--|
 --------------------------|-------------------------------|
 --------------------------|-------------------------------|

PH
E E H. Q. H E H H
 
 ------------------------|--------------------------|---------------------|
 ------------------------|---------10pbr---------L--|---L-----------------|
 --7-------------------|--------------------------|---------------------|
 -------9--L~------------|--L-----------------------|---------------------|
 ------------------------|--------------------------|---------------------|
 ------------------------|--------------------------|---------------------|
 -------|-------|-------|-------|-------|-------|-------|
 -------|-------|-------|-------|-------|-------|-------|
 -------|-------|-------|-------|-------|-------|-------|
 -------|-------|-------|-------|-------|-------|-------|
 -------|-------|-------|-------|-------|-------|-------|
 -------|-------|-------|-------|-------|-------|-------|

|--3-|
E H. E E H E E S S S
 
 -------------------------|--------------------------7----------|
 -----10b------------10b--|---Lpb--10pb---------Lpb-----10-7----|
 -------------------------|----------------------------------10-|
 -------------------------|-------------------------------------|
 -------------------------|-------------------------------------|
 -------------------------|-------------------------------------|

E S S S S S S S S S S S S S S E Q H E
 
 ------------------------------------|--------------------------|
 --7---------------------------------|--------------------------|
 -----10-9-10-7---9---7--------------|--------------------------|
 ---------------9---8---9-7--------7-|--------------------------|
 ---------------------------10-9-7---|--9br--7b----5~--------L--|
 ------------------------------------|--------------------------|

PM PM PM PM PM PM PM PM PM PM
S S S S S S S S S S S S S S S S S S S S S S S H S
 
 -----------------------------------------------|-------------------------------|
 -----------------------------------------------|-------------------------------|
 -----------------------------------------------|-------------------7~----------|
 -----------------------------------------------|-------------7-9-9-------------|
 --------------------------------7-7--7--7h-9-9-|--7h-9-9h-10-------------------|
 --7--7--7h-9--9--9h-10-10-10-10----------------|-------------------------------|

PH
H E. S E E H H
 
 ------------------------------|-----------------------|
 ------------------------------|-----------------------|
 --9b--------9pbr---7-9b--9--|--L~-------------------|
 ------------------------------|-----------------------|
 ------------------------------|-----------------------|
 ------------------------------|------------12\--------|

S S S S S S S S S S S S S S S S
 
 ---------------------------------------------------|
 -------12-12-------14-14--------15-15--------17-17-|
 ---------------------------------------------------|
 --7s-9--9--9-9s-11-11-11-11s-12-12-12-12s-14-14-14-|
 ---------------------------------------------------|
 ---------------------------------------------------|

S S S S S S S S S S S S S S E
 
 ---------------------------------------------17b--|
 ---------19-19-19-19-19-19-19-19-19-19-19-19------|
 --------------------------------------------------|
 --14s-16-16-16-16-16-16-16-16-16-16-16-16-16------|
 --------------------------------------------------|
 --------------------------------------------------|

E Q. E [3]E [3]E [3]E. [3]E S S. S S. S S. S Q. S.
 
 ---Lpb--17b------17--15--14--15-------|--14-------------------------------|
 ----------------------------------17--|-----15-17-14-15----14-------------|
 --------------------------------------|-----------------16----16b---------|
 --------------------------------------|--------------------------------14-|
 --------------------------------------|-----------------------------------|
 --------------------------------------|-----------------------------------|

H Q S S S S E H. E
 
 ----------------------------------|------------------------|
 ----------------------------------|------------------------|
 ----------------------------------|------------------------|
 --14b--------14b-----L-14p-12-14b-|---L--14b---------------|
 ----------------------------------|------------------------|
 ----------------------------------|------------------------|

T. T. T. T. T. T.T. T. T. T. T. T. T.T. T. T. T. T. T. T. T T
 
 ------------------------------------------------------------------------------|
 --12p-8--12p-7--12s-13-9--13p-8--14p-9--15p-10-9--15p-9--16p-12-16p-10-17p-13-|
 ------------------------------------------------------------------------------|
 ------------------------------------------------------------------------------|
 ------------------------------------------------------------------------------|
 ------------------------------------------------------------------------------|

T. T. T. T. T. T. T. T. T. T. T. T. T. T. T. T. T. T. T. S T.
 
 ---------------------------------------------------------------------------|
 --17p-12-18p-13-18p-12-19p-14-19p-13-20p-15-20p-12-21p-16-21p-15-22p-17-x--|
 ---------------------------------------------------------------------------|
 ---------------------------------------------------------------------------|
 ---------------------------------------------------------------------------|
 ---------------------------------------------------------------------------|

W
 
 --17b----------------|-------|-------|-------|-------|-------|-------|
 ---------------------|-------|-------|-------|-------|-------|-------|
 ---------------------|-------|-------|-------|-------|-------|-------|
 ---------------------|-------|-------|-------|-------|-------|-------|
 ---------------------|-------|-------|-------|-------|-------|-------|
 ---------------------|-------|-------|-------|-------|-------|-------|

E Q. S S S S S S S S W
 
 --------------------------------------|--17b~----------------|-------|-------|
 -----17b------19-17-15-14-17-15-14----|----------------------|-------|-------|
 -----------------------------------16-|----------------------|-------|-------|
 --------------------------------------|----------------------|-------|-------|
 --------------------------------------|----------------------|-------|-------|
 --------------------------------------|----------------------|-------|-------|

Q. Q E E E
 
 -------|-------|-------|-------|-------|--------------------10-------|
 -------|-------|-------|-------|-------|---------10b-----L------10b--|
 -------|-------|-------|-------|-------|-----------------------------|
 -------|-------|-------|-------|-------|-----------------------------|
 -------|-------|-------|-------|-------|-----------------------------|
 -------|-------|-------|-------|-------|-----------------------------|

W Q. Q E E E E H. E
 
 ---------------------|--------------------------|-----------------------|
 ---L~----------------|------------------10------|-----------------------|
 ---------------------|---------9b----L------9b--|--L--9b~------------L--|
 ---------------------|--------------------------|-----------------------|
 ---------------------|--------------------------|-----------------------|
 ---------------------|--------------------------|-----------------------|

Q. S S Q S S E W
 
 ----------------------------|---------------------|
 ---------x-x-15~------------|---------------------|
 --L------x-x--------x-x-16--|---L~----------------|
 -----------x--------x-x-----|---------------------|
 ----------------------------|---------------------|
 ----------------------------|---------------------|

E Q. Q E E E E H.
 
 -----17b------17pbr----14--17b--|---L--17b--17b~------------|-------|-------|
 --------------------------------|---------------------------|-------|-------|
 --------------------------------|---------------------------|-------|-------|
 --------------------------------|---------------------------|-------|-------|
 --------------------------------|---------------------------|-------|-------|
 --------------------------------|---------------------------|-------|-------|
 -------|-------|-------|-------|-------|-------|-------|-------|-------|-------|
 -------|-------|-------|-------|-------|-------|-------|-------|-------|-------|
 -------|-------|-------|-------|-------|-------|-------|-------|-------|-------|
 -------|-------|-------|-------|-------|-------|-------|-------|-------|-------|
 -------|-------|-------|-------|-------|-------|-------|-------|-------|-------|
 -------|-------|-------|-------|-------|-------|-------|-------|-------|-------|
 -------|-------|-------||
 -------|-------|-------||
 -------|-------|-------||
 -------|-------|-------||
 -------|-------|-------||
 -------|-------|-------||

Duration Legend
 
 ---------------

W - whole
H - half
Q - quarter
E - 8th
S - 16th
T - 32nd
X - 64th
. - note dotted
|-n-| - n-tuplets
Tablature Legend
 
 ----------------

L - tied note
x - dead note
g - grace note
(n) - ghost note
> - accentuded note
NH - natural harmonic
AH - artificial harmonic
TH - tapped harmonic
SH - semi harmonic
PH - pitch harmonic
h - hammer on
p - pull off
b - bend
br - bendRelease
pb - preBend
pbr - preBendRelease
brb - bendReleaseBend
\n/ - tremolo bar dip
\n - tremolo bar dive
-/n - tremolo bar Release up
/n\ - tremolo bar inverted dip
/n - tremolo bar return
-\n - tremolo bar Release down
S - shift slide
s - legato slide
/ - slide into from below or out of upwards
\ - slide into from above or out of downwards
~ - vibrato
W - wide vibrato
tr - trill
TP - tremolo picking
T - tapping
S - slap
P - pop
< - fade in
^ - brush up
v - brush down

Important: The song above is NOT stored on the Chordie server. The original song is hosted at www.guitaretab.com. Chordie works as a search engine and provides on-the-fly formatting. Chordie does not index songs against artists'/composers' will. To remove this song please click here.

Text color:
Chord color:
Chord grids: 
Font size:    
Page size: 

E
Rate #3 of 3 versions

Jango Player

Login - add to songbook

SHARE PAGE  




You need to log in to post comments