Guitar Tabs, Chords and Lyrics
Server problems seems to be fixed. Chordie has been experiencing problems with songs disappearing. These issues now seems to be fixed, but still verifying the fix. If you find anything strange, please email admin@chordie.com.


East Jesus Nowhere  Green Day

This is how I play it. Enjoy! Btw, Green day Rocks!
Intro: Em-G-Em-D-Em x8 D-A
Vers 1
[Em]Raise your hands now to testify[D] [A]
[Em]Your confession will be crucified[D] [A]
[Em]You're a sacrificial suicide[D] [A]
[Em]Like a dog that's been sodomized[D] [A]
[Em](St[G]an[Em]d u[D]p!)
[Em]All the white boys
[Em](Si[G]t [Em]dow[D]n!)
[Em]All the black girls
[Em](St[G]an[Em]d u[D]p!)
[D]You're the soldiers
[Em](Si[G]t [Em]dow[D]n!)
[Em]Of the new worl[D]d
Refrain 1
[B]Put your faith in a miracle[D] [A]
[B]And it's non-denominational[D] [A]
[B]Join the choir, we'll be singing[D] [A]
[B]In the church of [D]wishful thinking
Chorus 1
[E]A fire burns toda[G]y
[A]Of blasphemy and [C]genocid[B]e
[E]The sirens of deca[G]y
[A]Will infiltrate the faith [C]fanatic[B]s
Em-G-Em-D-Em x4 D-A
Vers 2.
[Em]Oh bless me [G]Lord for I have sinne[B]d
[Em]It's been a l[G]ifetime since I [B]last confessed
[Em]I threw my crut[G]ches in «the [B]river og a shadow of doubt»
[Em]And I'll be dre[G]ssed up in my [B]Sunday best[D] [A]
Refrain 2
[B]Say a prayer for the family[D] [A]
[B]Drop a coin for humanity[D] [A]
[B]Ain't this uniform so flattering?[D] [A]
[B]I never asked you a god damn th[D]ing!
Chorus 2
[E]A fire burns toda[G]y
[A]Of blasphemy and [C]genocid[B]e
[E]The sirens of deca[G]y
[A]Will infiltrate the faith f[C]anatics[B]
Em-G-Em-D-Em x4 D-A
Bridge
[Em]Don't test me
[Em]Second guess me
[Em]Protest me
[Em]You will disappear[Em] [D] [A]
Refrain 3
[B]I want to know who's allowed to breed[D] [A]
[B]All the dogs who never learned to read[D] [A]
[B]Missionary politicians[D] [A]
[B]And the cops of the [D]new religion!
Guitar solo
[Em] [G] [A] [C] [B]  
 
 e|-0-----0--2-|-3-----3----|-5-----5--7-|-8---|-7---|
 B|----0-------|----3-----3-|----5-------|---8-|---7-|
 G|------------|------------|------------|-----|-----|
 D|------------|------------|------------|-----|-----|
 A|------------|------------|------------|-----|-----|
 E|------------|------------|------------|-----|-----|

[Em] [G] [A] 
[D]  
 
 e|-12------12--14-|-10-----10----|-12------12--14-|-15-----|-14--|
 B|-----12---------|-----8------8-|-----10---------|-----15-|-----|
 G|----------------|--------------|----------------|--------|-----|
 D|----------------|--------------|----------------|--------|-----|
 A|----------------|--------------|----------------|--------|-----|
 E|----------------|--------------|----------------|--------|-----|

[Em] [F] [Em]  
 
 e|-0--3-7--10-|-8--5-|-4-|
 B|------------|------|---|
 G|------------|------|---|
 D|------------|------|---| x4
 A|------------|------|---|
 E|------------|------|---|

Chorus3 (slow)
[E]A fire burns toda[G]y
[A]Of blasphemy and [C]genocid[B]e
[E]The sirens og deca[G]y
[A]Will infiltrate [C]the insi[B]de
Outtro
 
 Em-G-Em-D-Em x 4 D-A-Em(Hold) 

Yeah!

Important: The song above is NOT stored on the Chordie server. The original song is hosted at www.guitaretab.com. Chordie works as a search engine and provides on-the-fly formatting. Chordie does not index songs against artists'/composers' will. To remove this song please click here.

Text color:
Chord color:
Chord grids: 
Font size:    
Page size: 

A B C D E Em F G
Rate #2 of 6 versions

Login - add to songbook

SHARE PAGE  




You need to log in to post comments