Guitar Tabs, Chords and Lyrics
Server problems seems to be fixed. Chordie has been experiencing problems with songs disappearing. These issues now seems to be fixed, but still verifying the fix. If you find anything strange, please email admin@chordie.com.


The Judge's Daughter  Green Day

Green Day - The Judges Daughter
39/Smooth (1990)
Transcribed by playinbass1432
playinbass1432@hotmail.com
 
 -------------------------------

Standard Tuning
First Verse
[G5] [F5] [C5] [G5]  
 
 |-----------------|-----------------|-----------------|-----------------|
 |-----------------|-----------------|-----------------|-----------------|
 |-----------------|-----------------|-5---5---5-5-5---|-----------------|
 |-5---5---5-5-5-3-|---3-3---3-3-3-3-|-5---5---5-5-5-5-|---5-5---5-5-5-5-| x4
 |-5---5---5-5-5-3-|---3-3---3-3-3-3-|-3---3---3-3-3-5-|---5-5---5-5-5-5-|
 |-3---3---3-3-3-1-|---1-1---1-1-1-1-|---------------3-|---3-3---3-3-3-3-|

Chorus
[C5] [D5] [G5] [F5] [G5]  
 
 |-----------------|-----------------|-----------------|-----------------|
 |-----------------|-----------------|-----------------|-----------------|
 |-5---5-5-5-5-5/7-|---7-7---7-7-7-7-|-----------------|-----------------|
 |-5---5-5-5-5-5/7-|---7-7---7-7-7-7-|-5---5-5---3-3/5-|---5-5-5-5-5-5-5-| x2
 |-3---3-3-3-3-3/5-|---5-5---5-5-5-5-|-5---5-5---3-3/5-|---5-5-5-5-5-5-5-|
 |-----------------|-----------------|-3---3-3---1-1/3-|---3-3-3-3-3-3-3-|

[C5] [D5] [G5] [F5] [G5]  
 
 |-----------------|-----------------|-----------------|-----------------|
 |-----------------|-----------------|-----------------|-----------------|
 |-5---5-5-5-5-5/7-|---7-7---7-7-7-7-|-----------------|-----------------|
 |-5---5-5-5-5-5/7-|---7-7---7-7-7-7-|-5---5-5---3-3/5-|---5-5-5-5-5-5-5-|
 |-3---3-3-3-3-3/5-|---5-5---5-5-5-5-|-5---5-5---3-3/5-|---5-5-5-5-5-5-5-|
 |-----------------|-----------------|-3---3-3---1-1/3-|---3-3-3-3-3-3-3-|

/ x2 \/ x2 \
Second Verse
[G5] [F5] [C5] [G5]  
 
 |-----------------|-----------------|-----------------|-----------------|
 |-----------------|-----------------|-----------------|-----------------|
 |-----------------|-----------------|-5---5---5-5-5---|-----------------|
 |-5---5---5-5-5-3-|---3-3---3-3-3-3-|-5---5---5-5-5-5-|---5-5---5-5-5-5-| x6
 |-5---5---5-5-5-3-|---3-3---3-3-3-3-|-3---3---3-3-3-5-|---5-5---5-5-5-5-|
 |-3---3---3-3-3-1-|---1-1---1-1-1-1-|---------------3-|---3-3---3-3-3-3-|

Chorus
[C5] [D5] [G5] [F5] [G5]  
 
 |-----------------|-----------------|-----------------|-----------------|
 |-----------------|-----------------|-----------------|-----------------|
 |-5---5-5-5-5-5/7-|---7-7---7-7-7-7-|-----------------|-----------------|
 |-5---5-5-5-5-5/7-|---7-7---7-7-7-7-|-5---5-5---3-3/5-|---5-5-5-5-5-5-5-| x2
 |-3---3-3-3-3-3/5-|---5-5---5-5-5-5-|-5---5-5---3-3/5-|---5-5-5-5-5-5-5-|
 |-----------------|-----------------|-3---3-3---1-1/3-|---3-3-3-3-3-3-3-|

[C5] [D5] [G5] [F5] [G5]  
 
 |-----------------|-----------------|-----------------|-----------------|
 |-----------------|-----------------|-----------------|-----------------|
 |-5---5-5-5-5-5/7-|---7-7---7-7-7-7-|-----------------|-----------------|
 |-5---5-5-5-5-5/7-|---7-7---7-7-7-7-|-5---5-5---3-3/5-|---5-5-5-5-5-5-5-|
 |-3---3-3-3-3-3/5-|---5-5---5-5-5-5-|-5---5-5---3-3/5-|---5-5-5-5-5-5-5-|
 |-----------------|-----------------|-3---3-3---1-1/3-|---3-3-3-3-3-3-3-|

/ x2 \/ x2 \
Bridge
[G5] [F5] [G5]  
 
 |-----------------|-----------------|
 |-----------------|-----------------|
 |-----------------|-----------------|
 |-5-5-5-5---3---5-|-5\--------------| x4
 |-5-5-5-5---3---5-|-5\--------------|
 |-3-3-3-3---1---3-|-3\--------------|

Guitar Solo
Overdub -
 
 |-------3------3--------------------------------------------3-3-------3-3-3-|
 |-----3------3---3------------------------------------------3-3-------3-3-3-|
 |-5b7----5b7-------3---2--/3---2----------------3---3---5b6-----5b6---------|
 |------------------------3-------3----------3-5---x---x---------------------|
 |----------------------------------3\---3-5---------------------------------|
 |---------------------------------------------------------------------------|
 |-3---6p3-------------------------------------------------------------------|
 |---------6-3-6b8r6---3-3---------------------------------------------------|
 |-------------------------5b7r5-3---3-5b7~~~~~3-3---------------------------|
 |---------------------------------5------------------5-4-3-----------~~//|
 |----------------------------------------------------------5-4-3------------|
 |----------------------------------------------------------------6b-0-------|
 |---------------------------------------------------------------|
 |----------15-15-------15-15-------15-15------------------------|
 |-15-17b19-------17b19-------17b19-------17b19r17-15~~~~~~15-15-|
 |---------------------------------------------------------------|
 |---------------------------------------------------------------|
 |---------------------------------------------------------------|
 |------------------------15--------------------15-20b22---x\\|
 |---------------------15----18b20--18b20-18b20---------------|
 |-17p15----15---17b19----------------------------------------|
 |-------17---------------------------------------------------|
 |------------------------------------------------------------|
 |------------------------------------------------------------|
 |---------------3-3-------3-------------------------------------|
 |---------------3-3-----3---------------------------------------|
 |-3-5p3---3-5b7-----5b7-----5b7r5-3----3--3---------------0-----|
 |-------5----------------------------5------5---5---5p3---5-----|
 |---------------------------------------------------------------|
 |-------------------------------------------------------3-------|

Rhythm -
[G5] [F5] [C5] [G5]  
 
 |-----------------|-----------------|-----------------|-----------------|
 |-----------------|-----------------|-----------------|-----------------|
 |-----------------|-----------------|-5---5---5-5-5---|-----------------|
 |-5---5---5-5-5-3-|---3-3---3-3-3-3-|-5---5---5-5-5-5-|---5-5---5-5-5-5-| x4
 |-5---5---5-5-5-3-|---3-3---3-3-3-3-|-3---3---3-3-3-5-|---5-5---5-5-5-5-|
 |-3---3---3-3-3-1-|---1-1---1-1-1-1-|---------------3-|---3-3---3-3-3-3-|

Chorus
[C5] [D5] [G5] [F5] [G5]  
 
 |-----------------|-----------------|-----------------|-----------------|
 |-----------------|-----------------|-----------------|-----------------|
 |-5---5-5-5-5-5/7-|---7-7---7-7-7-7-|-----------------|-----------------|
 |-5---5-5-5-5-5/7-|---7-7---7-7-7-7-|-5---5-5---3-3/5-|---5-5-5-5-5-5-5-| x2
 |-3---3-3-3-3-3/5-|---5-5---5-5-5-5-|-5---5-5---3-3/5-|---5-5-5-5-5-5-5-|
 |-----------------|-----------------|-3---3-3---1-1/3-|---3-3-3-3-3-3-3-|

[C5] [D5] [G5] [F5] [G5]  
 
 |-----------------|-----------------|-----------------|-----------------|
 |-----------------|-----------------|-----------------|-----------------|
 |-5---5-5-5-5-5/7-|---7-7---7-7-7-7-|-----------------|-----------------|
 |-5---5-5-5-5-5/7-|---7-7---7-7-7-7-|-5---5-5---3-3/5-|---5-5-5-5-5-5-5-|
 |-3---3-3-3-3-3/5-|---5-5---5-5-5-5-|-5---5-5---3-3/5-|---5-5-5-5-5-5-5-|
 |-----------------|-----------------|-3---3-3---1-1/3-|---3-3-3-3-3-3-3-|

/ x2 \/ x2 \
Outro
[G5] [F5] [G5]  
 
 |-----------------|-----------------|
 |-----------------|-----------------|
 |-----------------|-----------------|
 |-5-5-5-5---3---5-|-5\--------------| x4
 |-5-5-5-5---3---5-|-5\--------------|
 |-3-3-3-3---1---3-|-3\--------------|


Important: The song above is NOT stored on the Chordie server. The original song is hosted at www.guitaretab.com. Chordie works as a search engine and provides on-the-fly formatting. Chordie does not index songs against artists'/composers' will. To remove this song please click here.

Text color:
Chord color:
Chord grids: 
Font size:    
Page size: 

C5 D5 F5 G5
Rate #1 of 2 versions

Login - add to songbook

SHARE PAGE  




You need to log in to post comments