Guitar Tabs, Chords and Lyrics
Update 25:10. 13:00. Site is back up running again. Songbooks are recovered. Woring on getting search back up..


Run Run Run  Gyllene Tider

Tabbed for Standard Tuning
Tabbed by Jeppe
Songwriter: Per Gessle
BPM: 170
b = bend (whole step)
~ = Vibrato
Intro
Am |Am |G |G |F |Dm |E |E
Piano melody
 
 e--12-12--------------12--12-----------------------------------|
 B----------15--13-------------15--13---------15--15--12--------|
 G-----------------14------------------14-----------------12----|
 D--------------------------------------------------------------|
 A--------------------------------------------------------------|
 E--------------------------------------------------------------|
 e--12-12--------------12--12-----------------------------------|
 B----------15--13-------------15--13--15-----13--12--12--12----|
 G-----------------14-------------------------------------------|
 D--------------------------------------------------------------|
 A--------------------------------------------------------------|
 E--------------------------------------------------------------|

Verse 1
[Am]Go! Go! - She wants you every time that you [G]pass her by
[F]Go! Go! - And [Dm]wishing you could stay with her [E]by her side
[Am]Go! Go! - You got a piece of her heart, now, [G]you shouldn't refuse
[F]Go! Go! - You [Dm]came out to win, now you're [E]bound to lose
Chorus
She's gonna [C]run run run
'cos here you go and [G]break her heart
She's gonna [Am]run run run
[F]Before you start to [G]tear it apart
Interlude
Am |Am |G |G |F |Dm |E |E
Piano melody
 
 e--12-12--------------12--12-----------------------------------|
 B----------15--13-------------15--13---------15--15--12--------|
 G-----------------14------------------14-----------------12----|
 D--------------------------------------------------------------|
 A--------------------------------------------------------------|
 E--------------------------------------------------------------|
 e--12-12--------------12--12-----------------------------------|
 B----------15--13-------------15--13--15-----13--12--12--12----|
 G-----------------14-------------------------------------------|
 D--------------------------------------------------------------|
 A--------------------------------------------------------------|
 E--------------------------------------------------------------|

Verse 2
[Am]Go! Go! - Fire in your eyes, a new [G]love is burning
[F]Go! Go! - But she's[Dm] not gonna be there when it [E]comes to returning
[Am]Go! Go! - She's dreaming alone in this [G]lonely world
[F]Go! Go! - You [Dm]give all you got to [E]another girl
Chorus
She's gonna [C]run run run
'cos here you go and [G]break her heart
She's gonna [Am]run run run
[F]Before you start to [G]tear it apart
Bridge
 
 e---------------------0-----------------------------0-------------|
 B---------------------0-----------------------------0-------------|
 G--5--------------------------5--5--------------------------------|
 D--5---------------2--------5-5--5---------------2----------------| x 2
 A--3--233-233-23---2--------2-3--3---233-233-23--2----------------|
 E------------------0-----------------------------0----------------|

Halfway through the lead guitar come in with this during the E
 
 e----12--------------12-------------------------------------------|
 B----15b~------------15b~-----------------------------------------|
 G-----------------------------------------------------------------|
 D-----------------------------------------------------------------|
 A-----------------------------------------------------------------|
 E-----------------------------------------------------------------|

Piano break
 
 e-------------------------------------------------------------------|
 B-------------------------------------------------------------------|
 G-------5--9---------4--7------2--5------2 ------1--2--7------------|
 D----7------------5----------3------0--3-----2----------------------|
 A-------------------------------------------------------------------|
 E-------------------------------------------------------------------|

Interlude
Am |Am |G |G |F |Dm |E |E
Piano melody
 
 e--12-12--------------12--12-----------------------------------|
 B----------15--13-------------15--13---------15--15--12--------|
 G-----------------14------------------14-----------------12----|
 D--------------------------------------------------------------|
 A--------------------------------------------------------------|
 E--------------------------------------------------------------|
 e--12-12--------------12--12-----------------------------------|
 B----------15--13-------------15--13--15-----13--12--12--12----|
 G-----------------14-------------------------------------------|
 D--------------------------------------------------------------|
 A--------------------------------------------------------------|
 E--------------------------------------------------------------|

Chorus
Chorus
She's gonna [C]run run run
'cos here you go and [G]break her heart
She's gonna [Am]run run run
[F]Before you start to [G]tear it apart x 3
Intro 'till the end

Important: The song above is NOT stored on the Chordie server. The original song is hosted at www.guitaretab.com. Chordie works as a search engine and provides on-the-fly formatting. Chordie does not index songs against artists'/composers' will. To remove this song please click here.

Text color:
Chord color:
Chord grids: 
Font size:    
Page size: 

Am C Dm E F G
Rate #0 of 2 versions

Jango Player

Login - add to songbook

SHARE PAGE  



You need to log in to post comments