Guitar Tabs, Chords and Lyrics
Update 25:10. 13:00. Site is back up running again. Songbooks are recovered. Woring on getting search back up..


Joy Division Oven Gloves  Half Man Half Biscuit

Track: Joy Division Oven Gloves
Album: Achtung Bono
Tabber: Woodshed
INTRO
A - Bb - E x4
VERSE 1
Well, the [A]dish is too hot, you'll never guess what
[E]I've got Joy Division [A]oven gloves
If it's [A]her desire, I'll put my fingers in the fire
[E]'Cause I've got Joy Division [A]oven gloves
[E]I've got Joy Division [A]oven gloves
[D]Ooh, [E]ooh, tropical [A]diseases[A7]
[D]Ooh, [E]ooh, chemical [A]alarm[A7]
[F]Ooh, [E]ooh, I'm a little [A]blasť
[E]In me Joy Division [A]oven gloves
[E]In me Joy Division [A]oven gloves
A - Bb - E x2
VERSE 2
[A]I've been here and I've been there
[E]In me Joy Division [A]oven gloves
I've [A]been to a post-punk postcard fare
[E]In me Joy Division [A]oven gloves
[D]Ooh, [E]ooh, Nagasaki [A]towpath[A7]
[D]Ooh, [E]ooh, tickling the [A]laird[A7]
[F]Ooh, [E]ooh, checking out the [A]Quantocks
[E]In me Joy Division [A]oven gloves
[E]In me Joy Division [A]oven gloves
SOLO
A - Bb - E x2
D - E - A - A7 x2
A - E x2
 
 e|-------------------------------------------------------------------------|
 B|---5---5---5---5---5---5---5---5---5---5---5---5---5---5---5---5---------|
 G|-----6---6---6---6---6---6---6---6---6---6---6---6---6---6---6---6-------|
 D|-------------------------------------------------------------------------|
 A|-------------------------------------------------------------------------|
 E|-------------------------------------------------------------------------|
 e|-------------------------------------------------------------------------|
 B|-------------------------------------------------------------------------|
 G|---7--7-7--7-6--4--4-4--4-2--2-2-2--2-2-2-2-2----------------------------|
 D|-------------------------------------------------------------------------|
 A|-------------------------------------------------------------------------|
 E|-------------------------------------------------------------------------|
 e|-------------------------------------------------------------------------|
 B|-------------------------------------------------------------------------|
 G|---/7--7-7--7-6--4--4-4--4-2--2---2b3------------------------------------|
 D|-------------------------------------------------------------------------|
 A|-------------------------------------------------------------------------|
 E|-------------------------------------------------------------------------|
 e|---/5-5-/5-5-/5-5-/5-5-5---5-----------5-5-5-5-5-------------------------|
 B|---/5-5-/5-5-/5-5-/5-5---5---5---------5-5-5-5-5-------------------------|
 G|-------------------------------7b9---------------7b9---------------------|
 D|-------------------------------------------------------------------------|
 A|-------------------------------------------------------------------------|
 E|-------------------------------------------------------------------------|

VERSE 3
On a [A]sinking ship a sailor yearns
[E]For his Joy Division [A]oven gloves
[A]Nero fiddles while Gordon Burns
[E]In his Joy Division [A]oven gloves
[A]Talk to the hands, talk to the hands
[E]In his Joy Division [A]oven gloves
[A]Dance, dance, dance, dance
[E]In your Joy Division [A]oven gloves
[D]Ooh, [E]ooh, piccalilli [A]shinpads[A7]
[D]Ooh, [E]ooh, polishing the [A]knave[A7]
[F]I [E]keep wicket for the [A]Quakers
[E]In me Joy Division [A]oven gloves (repeat)
CODA
My [A]grandfather's [E]clock was too [A]tall for the [D]shelf
So I [A]sold it and [E]opened up a [A]stall
[E]Selling Joy Division [A]oven gloves
[E]We got Joy Division [A]oven gloves
[E]Get your Joy Division [A]oven gloves
[E]Hallelujah[Amaj7]

Important: The song above is NOT stored on the Chordie server. The original song is hosted at www.guitaretab.com. Chordie works as a search engine and provides on-the-fly formatting. Chordie does not index songs against artists'/composers' will. To remove this song please click here.

Text color:
Chord color:
Chord grids: 
Font size:    
Page size: 

A A7 Amaj7 D E F
Rate #1 of 3 versions

Login - add to songbook

SHARE PAGE  




You need to log in to post comments