Guitar Tabs, Chords and Lyrics
Major upgrade!! After one year development the new version of Chordie is now online! Please give feedback.


Ankara  Haluk Levent

[Am] [G] [Am] [G] [Dm]  
 
 E: --------0---------3---------0---------3---------1----|
 B: --------1---------0---------1---------0---------3----|
 G: --------2---------0---------2---------0---------2----|
 D: ------2---------0---------2---------0---------0------|
 A: ----0---------2---------0---------2---------0--------|
 E: --0--------3----------0---------3---------0----------|

[Dm] [Am] [Am] [G]  
 
 E: --------1---------0---------0---------3--------------|
 B: --------3---------1---------1---------0--------------|
 G: --------2---------2---------2---------0--------------|
 D: ------0---------2---------2---------0----------------|
 A: ----0---------0---------0---------2------3-2-0-0-----|
 E: --0---------0---------0---------3-------------3--0---|

ARPEJ
[Am]Sen [G]ellerimde [Am]sen [G]g?zlerimde [)])
[Dm]Issiz ge?en her gecem[Am]de [G]herseyinle yanimdas[Am]in [)])
[)] [A] 
[Am]En zor bu ge[G]r?ekten se[Am]vdigimi s?[G]ylemeden [)])
[Dm]Ayrildim yine sen[Am]den [G]ayrildim yine send[Am]en [)])
-DAVUL ATAK-
[Am]Yoksun sen [G]aslinda [Am]yalnizim [G]bu kumsalda [)])
[Dm]Neler neler yapiyorsun [Am]bensizken Ankarad[G]a [)]) 2(NAKARAT)
[G]Bensizken Ankara[Am]da [)])
[Am] [G] [Am] [G] [Dm] [Dm] [Am] [G] [Am]  
-TEKRAR A-
-NAKARAT-
Submitted By DJ. Kurt Promix

Important: The song above is NOT stored on the Chordie server. The original song is hosted at www.guitaretab.com. Chordie works as a search engine and provides on-the-fly formatting. Chordie does not index songs against artists'/composers' will. To remove this song please click here.

Text color:
Chord color:
Chord grids: 
Font size:    
Page size: 

A Am Dm G
Rate #1 of 5 versions

Jango Player

Login - add to songbook

SHARE PAGE  




You need to log in to post comments