Guitar Tabs, Chords and Lyrics
Server problems seems to be fixed. Chordie has been experiencing problems with songs disappearing. These issues now seems to be fixed, but still verifying the fix. If you find anything strange, please email admin@chordie.com.


Zonsondergangen  Harrie Jekkers

Artiest: Harrie Jekkers
Show: Jekkers en Koos: Het verhaal achter de liedjes
Nummer: Zonsondergangen
© Het gelijk van de goudvis, 2002
Tab: Alexander Westers
e-mail: infernal_purge@hotmail.com
Stemming: Open G
d|
B|
G|
D|*
G|*
D|
* Snaren worden met de duim bespeeld
Legenda:
/ = slide
Veel plezier ermee!
Intro:
[G] [G] [G] [G]  
 
 |----------------|----------------|--------2-------|--------5-------|
 |-0-1--3---------|-0-1--3---------|-0-1--3----3-1--|-0----3---------|
 |----------------|----------------|----------------|--/4---------4--|
 |------0---------|------0---------|------0----0----|------0----0----|
 |-0--------------|-0--------------|-0--------------|-0--------------|
 |----------------|----------------|----------------|----------------|

Couplet 1:
Veel te lang waren we samen Geen kinderen, maar wel de namen
[G] [G] [G] [G]  
 
 |--------2-------|--------5-------|--------2-------|--------5-------|
 |-0-1--3----3-1--|-0----3----3----|-0-1--3----3-1--|-0----3----3----|
 |----------------|--/4---------4--|----------------|--/4---------4--|
 |------0----0----|------0----0----|------0----0----|------0----0----|
 |-0--------------|-0--------------|-0--------------|-0--------------|
 |----------------|----------------|----------------|----------------|

Moegestreden waren we na een allang verloren strijd
[Bm] [C] [G] [G]  
 
 |--------4-------|--------5-------|----------------|-5--------------|
 |----------------|------5----5----|-0-1--3----0----|----------------|
 |-4-7--4----7-4--|-5-7---------5--|------------/4--|----------------|
 |------4----4----|------5----5----|------0----0----|------0---------|
 |-4--------------|-5--------------|-0--------------|-0---------0----|
 |----------------|----------------|----------------|----------------|

Vrienden blijven lukte niet dat was nog erger dan verdriet
[G] [G] [G] [G]  
 
 |--------2-------|--------5-------|--------2-------|--------5-------|
 |-0-1--3----3-1--|-0----3----3----|-0-1--3----3-1--|-0----3----3----|
 |----------------|--/4---------4--|----------------|--/4---------4--|
 |------0----0----|------0----0----|------0----0----|------0----0----|
 |-0--------------|-0--------------|-0--------------|-0--------------|
 |----------------|----------------|----------------|----------------|

Zinloos was het door te spelen in blessuretijd
[Bm] [C] [G]  
 
 |--------4-------|--------5-------|----------------|
 |----------------|------5----5----|-0-1--3----0----|
 |-4-7--4----7-4--|-5-7---------5--|------------/4--|
 |------4----4----|------5----5----|------0----0----|
 |-4--------------|-5--------------|-0--------------|
 |----------------|----------------|----------------|

Refrein:
Toch blijf jij vragen: ?Kom nog eens langs,
[G] [D7] [G] [C] [D]  
 
 |-5--------------|----------------|--------5-------|-----------7----|
 |------3----1----|-0----1----3----|------5----5----|------7-8----7--|
 |------4----2----|---0----2----4--|-5-7---------5--|-7-9------------|
 |------0----0----|------0----0----|------5----5----|------7----7----|
 |-0--------------|-0--------------|-5--------------|-7--------------|
 |----------------|----------------|----------------|----------------|

Laat eens iets van je horen, schrijf eens een brief van ?Hoe gaat het ermee??
[G] [C] [G] [G]  
 
 |-9----12------0--|-------------7--7/9----9----9----|---12-10----9----|
 |--8/12--12-------|-5----5---5-----|---8----8----8--8/12--------------|
 |-----------12----|---5----5-------|----------------|-----------------|
 |-------0----0----|------5----5----|------0----0----|-------0----0----|
 |-0---------------|-5--------------|-0--------------|--0--------------|
 |-----------------|----------------|----------------|-----------------|

Alles is goed?, zeg jij.
[D] [D] [C] [D]  
 
 |-7---------7----|----------------|--------5-------|-----------7----|
 |--------7----7--|------7-8--7----|------5----5----|------7-8----7--|
 |------7---------|-7-9---------9--|-5-7---------5--|-7-9------------|
 |------7----7----|------7----7----|------5----5----|------7----7----|
 |-7--------------|-7--------------|-5--------------|-7--------------|
 |----------------|----------------|----------------|----------------|

Stuur eens een kaart, desnoods een zonsondergang
[G] [C] [G] [D]  
 
 |-9----12------0--|-------------7--7/9----9----9----|---7-------7----|
 |--8/12--12-------|-5----5---5-----|---8----8----8--|------8---------|
 |-----------12----|---5----5-------|----------------|-7--------------|
 |-------0----0----|------5----5----|------0----0----|------7----7----|
 |-0---------------|-5--------------|-0--------------|-7--------------|
 |-----------------|----------------|----------------|----------------|

Boven zee
[C] [G]  
 
 |----------------|----------------|
 |------5-0--3-1--|-0--------------|
 |-5-7-------4-2--|-0--------------|
 |------5---------|----------------|
 |-5---------0----|-0--------------|
 |----------------|----------------|

Couplet 2:
Maar wat wil je dan dat ik nog vraag? Of het bij jou ook regende vandaag?
[G] [G] [G] [G]  
 
 |--------2-------|--------5-------|--------2-------|--------5-------|
 |-0-1--3----3-1--|-0----3----3----|-0-1--3----3-1--|-0----3----3----|
 |----------------|--/4---------4--|----------------|--/4---------4--|
 |------0----0----|------0----0----|------0----0----|------0----0----|
 |-0--------------|-0--------------|-0--------------|-0--------------|
 |----------------|----------------|----------------|----------------|

Of moet ik informeren hoe het met je katten is?
[Bm] [C] [G] [G]  
 
 |--------4-------|--------5-------|----------------|-5--------------|
 |----------------|------5----5----|-0-1--3----0----|----------------|
 |-4-7--4----7-4--|-5-7---------5--|------------/4--|----------------|
 |------4----4----|------5----5----|------0----0----|------0---------|
 |-4--------------|-5--------------|-0--------------|-0---------0----|
 |----------------|----------------|----------------|----------------|

Wat wil je dan dat ik nog schrijf? Dat ik nog steeds bij mijn beslissing blijf?
[G] [G] [G] [G]  
 
 |--------2-------|--------5-------|--------2-------|--------5-------|
 |-0-1--3----3-1--|-0----3----3----|-0-1--3----3-1--|-0----3----3----|
 |----------------|--/4---------4--|----------------|--/4---------4--|
 |------0----0----|------0----0----|------0----0----|------0----0----|
 |-0--------------|-0--------------|-0--------------|-0--------------|
 |----------------|----------------|----------------|----------------|

Of wil je liever dat ik lieg dat ik je mis?
[Bm] [C] [G]  
 
 |--------4-------|--------5-------|----------------|
 |----------------|------5----5----|-0-1--3----0----|
 |-4-7--4----7-4--|-5-7---------5--|------------/4--|
 |------4----4----|------5----5----|------0----0----|
 |-4--------------|-5--------------|-0--------------|
 |----------------|----------------|----------------|

Refrein:
Toch blijf jij vragen: ?Kom nog eens langs, Harrie.
[G] [D7] [G] [C] [D]  
 
 |-5--------------|----------------|--------5-------|-----------7----|
 |------3----1----|-0----1----3----|------5----5----|------7-8----7--|
 |------4----2----|---0----2----4--|-5-7---------5--|-7-9------------|
 |------0----0----|------0----0----|------5----5----|------7----7----|
 |-0--------------|-0--------------|-5--------------|-7--------------|
 |----------------|----------------|----------------|----------------|

Laat eens iets van je horen, schrijf eens een brief van ?Hoe gaat het ermee??
[G] [C] [G] [G]  
 
 |-9----12------0--|-------------7--7/9----9----9----|---12-10----9----|
 |--8/12--12-------|-5----5---5-----|---8----8----8--8/12--------------|
 |-----------12----|---5----5-------|----------------|-----------------|
 |-------0----0----|------5----5----|------0----0----|-------0----0----|
 |-0---------------|-5--------------|-0--------------|--0--------------|
 |-----------------|----------------|----------------|-----------------|

Alles is goed?, zeg jij.
[D] [D] [C] [D]  
 
 |-7---------7----|----------------|--------5-------|-----------7----|
 |--------7----7--|------7-8--7----|------5----5----|------7-8----7--|
 |------7---------|-7-9---------9--|-5-7---------5--|-7-9------------|
 |------7----7----|------7----7----|------5----5----|------7----7----|
 |-7--------------|-7--------------|-5--------------|-7--------------|
 |----------------|----------------|----------------|----------------|

Stuur eens een kaart, desnoods een zonsondergang
[G] [C] [G] [D]  
 
 |-9----12------0--|-------------7--7/9----9----9----|---7-------7----|
 |--8/12--12-------|-5----5---5-----|---8----8----8--|------8---------|
 |-----------12----|---5----5-------|----------------|-7--------------|
 |-------0----0----|------5----5----|------0----0----|------7----7----|
 |-0---------------|-5--------------|-0--------------|-7--------------|
 |-----------------|----------------|----------------|----------------|

Boven zee
[C] [G]  
 
 |----------------|----------------|
 |------5-0--3-1--|-0----1----3----|
 |-5-7-------4-2--|---0----2----4--|
 |------5---------|------0----0----|
 |-5---------0----|-0--------------|
 |----------------|----------------|

Slot:
Maar ik kom niet meer langs, laat ook niets van me horen
[C] [D] [G] [C]  
 
 |--------5-------|-----------7----|-9----12------0--|-------------7--|
 |------5----5----|------7-8----7--|--8/12--12-------|-5----5---5-----|
 |-5-7---------5--|-7-9------------|-----------12----|---5----5-------|
 |------5----5----|------7----7----|-------0----0----|------5----5----|
 |-5--------------|-7--------------|-0---------------|-5--------------|
 |----------------|----------------|-----------------|----------------|

Geen brief, geen kaart, geen cliché.
[G] [G] [D] [D]  
 
 |-7/9----9----9----|---12-10----9----|-7--------------|----------------|
 |-----8----8----8--8/12--------------|-----------8----|-7--------------|
 |------------------|-----------------|----------------|----------------|
 |--------0----0----|-------0----0----|-----------9----|-7--------------|
 |---0--------------|--0--------------|-7--------------|----------------|
 |------------------|-----------------|----------------|----------------|

Het was alles of niets, daartussen ligt kitsch
[C] [D] [G] [C]  
 
 |--------5-------|-----------7----|-9----12------0--|-------------7--|
 |------5----5----|------7-8----7--|--8/12--12-------|-5----5---5-----|
 |-5-7---------5--|-7-9------------|-----------12----|---5----5-------|
 |------5----5----|------7----7----|-------0----0----|------5----5----|
 |-5--------------|-7--------------|-0---------------|-5--------------|
 |----------------|----------------|-----------------|----------------|

Ligt een zonsondergang boven zee
[G] [D] [C] [D7] [Gadd6]  
 
 |-7/9----9----9----|---7-------7----|----------------|---------------|
 |-----8----8----8--|------8---------|------5-0--3-1--|-0-0/5---------|
 |------------------|-7--------------|-5-7-------4-2--|-0-0/4---------|
 |--------0----0----|------7----7----|------5---------|---------------|
 |---0--------------|-7--------------|-5---------0----|-0-------------|
 |------------------|----------------|----------------|---------------|

Vingerzettingen:
Legenda:
1 = wijsvinger
2 = middelvinger
3 = ringvinger
4 = pink
() = versieringen
[] = barréakkoord, of één vinger voor verschillende snaren
[G]  
 
 |o-----|-(2)-|-----|-----|-----|-----|-----|-----|-----|-----|-----|-----||
 |o-(1)-|-----|-(4)-|-----|-----|-----|-----|-----|-----|-----|-----|-----||
 |o-----|-----|-----|-----|-----|-----|-----|-----|-----|-----|-----|-----||
 |o-----|-----|-----|-----|-----|-----|-----|-----|-----|-----|-----|-----||
 |o-----|-----|-----|-----|-----|-----|-----|-----|-----|-----|-----|-----||
 ||-----|-----|-----|-----|-----|-----|-----|-----|-----|-----|-----|-----||

* * * * * *
G?
 
 ||-----|-----|-----|-----|--3--|-----|-----|-----|-----|-----|-----|-----||
 ||-----|-----|--1--|-----|-----|-----|-----|-----|-----|-----|-----|-----||
 ||-----|-(2//////////)2--|-----|-----|-----|-----|-----|-----|-----|-----||
 |o-----|-----|-----|-----|-----|-----|-----|-----|-----|-----|-----|-----||
 |o-----|-----|-----|-----|-----|-----|-----|-----|-----|-----|-----|-----||
 ||-----|-----|-----|-----|-----|-----|-----|-----|-----|-----|-----|-----||

* * * * * *
G??
 
 ||-----|-----|-----|-----|-----|-----|-----|-----|--3--|-----|-----|-----||
 ||-----|-----|-----|-----|-----|-----|-----|--2--|-----|-----|-----|-----||
 ||-----|-----|-----|-----|-----|-----|-----|-----|-----|-----|-----|-----||
 |o-----|-----|-----|-----|-----|-----|-----|-----|-----|-----|-----|-----||
 |o-----|-----|-----|-----|-----|-----|-----|-----|-----|-----|-----|-----||
 ||-----|-----|-----|-----|-----|-----|-----|-----|-----|-----|-----|-----||

* * * * * *
G???
 
 ||-----|-----|-----|-----|-----|-----|-----|-----|-(2)-|-(2)-|-----|-[2]-||
 ||-----|-----|-----|-----|-----|-----|-----|-----|-----|-----|-----|-[2]-||
 ||-----|-----|-----|-----|-----|-----|-----|-----|-----|-----|-----|-[2]-||
 |o-----|-----|-----|-----|-----|-----|-----|-----|-----|-----|-----|-----||
 |o-----|-----|-----|-----|-----|-----|-----|-----|-----|-----|-----|-----||
 ||-----|-----|-----|-----|-----|-----|-----|-----|-----|-----|-----|-----||

* * * * * *
[Bm]  
 
 ||-----|-----|-----|-[1]-|-----|-----|-----|-----|-----|-----|-----|-----||
 ||-----|-----|-----|-[1]-|-----|-----|-----|-----|-----|-----|-----|-----||
 ||-----|-----|-----|-[1]-|-----|-----|-(4)-|-----|-----|-----|-----|-----||
 ||-----|-----|-----|-[1]-|-----|-----|-----|-----|-----|-----|-----|-----||
 ||-----|-----|-----|-[1]-|-----|-----|-----|-----|-----|-----|-----|-----||
 ||-----|-----|-----|-[1]-|-----|-----|-----|-----|-----|-----|-----|-----||

* * * * * *
[C]  
 
 ||-----|-----|-----|-----|-[1]-|-----|-----|-----|-----|-----|-----|-----||
 ||-----|-----|-----|-----|-[1]-|-----|-----|-----|-----|-----|-----|-----||
 ||-----|-----|-----|-----|-[1]-|-----|-(3)-|-----|-----|-----|-----|-----||
 ||-----|-----|-----|-----|-[1]-|-----|-----|-----|-----|-----|-----|-----||
 ||-----|-----|-----|-----|-[1]-|-----|-----|-----|-----|-----|-----|-----||
 ||-----|-----|-----|-----|-[1]-|-----|-----|-----|-----|-----|-----|-----||

* * * * * *
[D7]  
 
 ||-----|-----|-----|-----|-----|-----|-----|-----|-----|-----|-----|-----||
 ||--1--|-----|-----|-----|-----|-----|-----|-----|-----|-----|-----|-----||
 ||-----|--2--|-----|-----|-----|-----|-----|-----|-----|-----|-----|-----||
 |o-----|-----|-----|-----|-----|-----|-----|-----|-----|-----|-----|-----||
 ||-----|-----|-----|-----|-----|-----|-----|-----|-----|-----|-----|-----||
 ||-----|-----|-----|-----|-----|-----|-----|-----|-----|-----|-----|-----||

* * * * * *
[D]  
 
 ||-----|-----|-----|-----|-----|-----|-[1]-|-----|-----|-----|-----|-----||
 ||-----|-----|-----|-----|-----|-----|-[1]-|-(2)-|-----|-----|-----|-----||
 ||-----|-----|-----|-----|-----|-----|-[1]-|-----|-(3)-|-----|-----|-----||
 ||-----|-----|-----|-----|-----|-----|-[1]-|-----|-----|-----|-----|-----||
 ||-----|-----|-----|-----|-----|-----|-[1]-|-----|-----|-----|-----|-----||
 ||-----|-----|-----|-----|-----|-----|-[1]-|-----|-----|-----|-----|-----||

* * * * * *
Slotakkoord
 
 ||-----|-----|-----|-----|-----|-----|-----|-----|-----|-----|-----|-----||
 ||-----|-----|-----|-----|--3--|-----|-----|-----|-----|-----|-----|-----||
 ||-----|-----|-----|--2--|-----|-----|-----|-----|-----|-----|-----|-----||
 |o-----|-----|-----|-----|-----|-----|-----|-----|-----|-----|-----|-----||
 |o-----|-----|-----|-----|-----|-----|-----|-----|-----|-----|-----|-----||
 ||-----|-----|-----|-----|-----|-----|-----|-----|-----|-----|-----|-----||

* * * * * *

Important: The song above is NOT stored on the Chordie server. The original song is hosted at www.guitaretab.com. Chordie works as a search engine and provides on-the-fly formatting. Chordie does not index songs against artists'/composers' will. To remove this song please click here.

Text color:
Chord color:
Chord grids: 
Font size:    
Page size: 

Bm C D D7 G Gadd6
Rate #2 of 3 versions

Jango Player

Login - add to songbook

SHARE PAGE  



You need to log in to post comments