Guitar Tabs, Chords and Lyrics
Server problems seems to be fixed. Chordie has been experiencing problems with songs disappearing. These issues now seems to be fixed, but still verifying the fix. If you find anything strange, please email admin@chordie.com.


Nailed to Obscurity  Hate Eternal

As recorded by Hate Eternal
(From the 1999 Album CONQUERING THE THRONE)
Music by Doug Cerrito
Transcribed by Matthew Williams AKA autumnlrds
Tablature Legend
 
 ----------------

h - hammer-on
p - pull-off
b - bend
pb - pre-bend
r - bend release (if no number after the r, then release immediately)
/\ - slide into or out of (from/to "nowhere")
s - legato slide
S - shift slide
- natural harmonic
(n) - artificial harmonic
n(n) - tapped harmonic
~ - vibrato
tr - trill
T - tap
TP - trem. picking
PM - palm muting
Misc Legend
 
 -----------

| - bar
|| - double bar
||o - repeat start
o|| - repeat end
*| - double bar (ending)
: - bar (freetime)
$ - Segno
& - Coda
Gtr I (D G C F A D) - 'Guitar 1'
Gtr II (D G C F A D) - 'Guitar 2'
Intro
Fast Death Metal Q=218
N.C.
[4/4] Gtrs I, II
 
 PM----------| PM PM------| PM------------------------| PM------|

S S E S S E E E E E E S S S S E E S S S S S S S S S S S S E E S S S S E
 
 |---------------------|---------------------------|----------------------------|
 |---------------------|---------------------------|----------------------------|
 |---------------------|---------------------------|----------------------------|
 |---------------------|---------------------------|----------------------------|
 |---------------3-2---|-1-----------0-------------|---------------2------------|
 |-1-1-1-1-1-2-3-----3-|---2-2-2-2-2---1-1-1-1-1-1-|-0-0-1-1-2-2-3---3-3-3-3-3--|

N.C.
Gtr I
 
 PM------| PM----------------------| PM PM------| PM------|

E S S S S E E S S S S E S S E S S E E E E E E S S S S E E S S S S E
 
 |-------------------------|---------------------|-------------------------|
 |-------------------------|---------------------|-------------------------|
 |-------------------------|---------------------|-------------------------|
 |-------------------------|---------------------|-------------------------|
 |-6-----------5-----------|---------------3-2---|-1-----------0-----------|
 |---3-3-4-3-3---2-2-3-2-2-|-1-1-1-1-1-2-3-----3-|---2-2-1-2-2---1-1-0-1-1-|

|
| Gtr II
 
 | PM------| PM--------------------| PM------| PM------|

| E S S S S E E S S S S E S S E S S E H E S S S S E E S S S S E
 
 |-------------------------|---------------------|-------------------------|
 |-------------------------|---------------------|-------------------------|
 |-------------------------|---------------------|-------------------------|
 |-------------------------|---------------------|-------------------------|
 |-6-----------5-----------|---------------------|-1-----------0-----------|
 |---3-3-4-3-3---2-2-3-2-2-|-1-1-1-1-1-2---------|---2-2-1-2-2---1-1-0-1-1-|

N.C.
 
 PM------| PM------| PM------| PM------|

E S S S S E E S S S S E E S S S S E E S S S S E
 
 |-------------------------|-------------------------|
 |-------------------------|-------------------------|
 |-------------------------|-------------------------|
 |-------------------------|-------------------------|
 |-6-----------5-----------|-9-----------8-----------|
 |---4-4-5-4-3---3-3-4-3-3-|---7-7-8-7-6---6-6-7-6-6-|

|
 
 | PM------| PM------| PM------| PM------|

| E S S S S E E S S S S E E S S S S E E S S S S E
 
 |-------------------------|-------------------------|
 |-------------------------|-------------------------|
 |-------------------------|-------------------------|
 |-------------------------|-7-----------6-----------|
 |-9-----------8-----------|---5-5-6-5-4---4-4-5-4-4-|
 |---7-7-8-7-6---6-6-7-6-6-|-------------------------|

Verse
N.C.
Gtrs I, II
 
 PM----------| PM PM------| PM-----------

S S E S S E E E E E E S S S S E E S S S S S S
 
 ||----------------------|---------------------------|
 ||o---------------------|---------------------------|
 ||----------------------|---------------------------|
 ||----------------------|---------------------------|
 ||o---------------3-2---|-1-----------0-------------|
 ||--1-1-1-1-1-2-3-----3-|---2-2-2-2-2---1-1-1-1-1-1-|
 -------------| PM------|

S S S S S S E E S S S S E
 
 |----------------------------|
 |----------------------------|
 |----------------------------|
 |----------------------------|
 |---------------2------------|
 |-0-0-1-1-2-2-3---3-3-3-3-3--|
 PM------| PM----------------------| PM PM------| PM------|

E S S S S E E S S S S E S S E S S E E E E E E S S S S E E S S S S E
 
 |-------------------------|---------------------|-------------------------|
 |-------------------------|---------------------|-------------------------|
 |-------------------------|---------------------|-------------------------|
 |-------------------------|---------------------|-------------------------|
 |-6-----------5-----------|---------------3-2---|-1-----------0-----------|
 |---3-3-4-3-3---2-2-3-2-2-|-1-1-1-1-1-2-3-----3-|---2-2-1-2-2---1-1-0-1-1-|

N.C.
Gtr I
 
 PM------| PM--------|

E S S S S E E S S S S S S
 
 |---------------------------|
 |---------------------------|
 |---------------------------|
 |---------------------------|
 |-6-----------5-------------|
 |---4-4-5-4-3---3-3-4-3-3-3-|

|
| Gtr II
 
 | PM------| PM--------|

| E S S S S E E S S S S S S
 
 |---------------------------|
 |---------------------------|
 |---------------------------|
 |---------------------------|
 |-9-----------8-------------|
 |---7-7-8-7-6---6-6-7-6-6-6-|
 PM------| PM----| PM----------------| PM

E S S S S E E S S S S S S S S E S S E E E E E
 
 |----------------------------||---------------------|
 |---------------------------o||---------------------|
 |----------------------------||---------------------|
 |----------------------------||---------------------|
 |-9-----------8-------------o||---------------3-2---|
 |---7-7-8-7-6---6-6-7-6-6-6--||-1-1-1-1-1-2-3-----3-|

|
 
 | PM------| PM------------------------|

| E S S S S E E S S S S S S S S E S S E H
 
 |----------------------------||---------------------|
 |---------------------------o||---------------------|
 |----------------------------||---------------------|
 |-7-----------6--------------||---------------------|
 |---5-5-6-5-4---4-4-5-4-4-4-o||---------------------|
 |----------------------------||-1-1-1-1-1-2---------|

Chorus
Q=213
N.C.
Gtrs I, II
 
 PM------| PM--------|

E S S S S E E S S S S S S
 
 ||----------------------------|
 ||o---------------------------|
 ||----------------------------|
 ||----------------------------|
 ||o---------------------------|
 ||--6-3-3-3-3-3-5-2-2-2-2-2-2-|
 PM--------| PM--------| PM------| PM------|

E S S S S S S S S S S S S S S E S S S S E E S S S S E
 
 |-------------------------------|-------------------------|
 |-------------------------------|-------------------------|
 |-------------------------------|-------------------------|
 |-------------------------------|-------------------------|
 |-------------------------------|-------------------------|
 |-0-0-0-0-0-0-0-1p0-0-0-0-0-0-0-|-6-3-3-3-3-3-5-2-2-2-2-2-|

N.C.
 
 PM------| PM--------| PM--------| PM--------|

E E E E E E E E E S S S S E E S S S S S S E S S S S S S S S S S S S S S
 
 |-----------------|---------------------------|-------------------------------|
 |-----------------|---------------------------|-------------------------------|
 |-----------------|---------------------------|-------------------------------|
 |-4p3---------2-1-|---------------------------|-------------------------------|
 |---------1-2-----|---------------------------|-------------------------------|
 |-----2p1---------|-6-3-3-3-3-3-5-2-2-2-2-2-2-|-0-0-0-0-0-0-0-1p0-0-0-0-0-0-0-|
 PM------| PM------|

S S S S S S E S S S S S S E
 
 |------------------------------|
 |------------------------------|
 |------------------------------|
 |------------------------------|
 |------------------------------|
 |-4p3-3-3-3-3-3-3-\2-2-2-2-2-2-|

1. 2.
[A5]  
 
 PM------| PM------| PM--------|

S S S S S S E S S S S S S E E S S S S S S E E Q
 
 |-------------------------------||------------------------|
 |------------------------------o||------------------------|
 |-------------------------------||------------------------|
 |-------------------------------||------------------------|
 |------------------------------o||----------------6-------|
 |-6p5-5-5-5-5-5-5-\4-4-4-4-4-4--||-/5-5-5-4-4-5-5-4-------|

Verse
N.C.
Gtrs I, II
 
 PM----------| PM PM------| PM----------------------| PM------|

S S E S S E E E E E E S S S S E E S S S S E S S S S S S E E S S S S E
 
 ||----------------------|-------------------------|---------------------------|
 ||o---------------------|-------------------------|---------------------------|
 ||----------------------|-------------------------|---------------------------|
 ||----------------------|-------------------------|---------------------------|
 ||o---------------3-2---|-1-----------0-----------|---------------2-----------|
 ||--1-1-1-1-1-2-3-----3-|---2-2-1-2-2---1-1-0-1-1-|-0-0-1-1-2-2-3---3-3-3-3-3-|

N.C.
 
 PM------| PM----------------------| PM PM------| PM------|

E S S S S E E S S S S E S S E S S E E E E E E S S S S E E S S S S E
 
 |-------------------------|---------------------|-------------------------|
 |-------------------------|---------------------|-------------------------|
 |-------------------------|---------------------|-------------------------|
 |-------------------------|---------------------|-------------------------|
 |-6-----------5-----------|---------------3-2---|-1-----------0-----------|
 |---3-3-4-3-3---2-2-3-2-2-|-1-1-1-1-1-2-3-----3-|---2-2-1-2-2---1-1-0-1-1-|

N.C.
Gtr I
 
 PM------| PM--------|

E S S S S E E S S S S S S
 
 |---------------------------|
 |---------------------------|
 |---------------------------|
 |---------------------------|
 |-6-----------5-------------|
 |---4-4-5-4-3---3-3-4-3-3-3-|

|
| Gtr II
 
 | PM------| PM--------|

| E S S S S E E S S S S S S
 
 |---------------------------|
 |---------------------------|
 |---------------------------|
 |---------------------------|
 |-9-----------8-------------|
 |---7-7-8-7-6---6-6-7-6-6-6-|
 PM------| PM----| PM----------------| PM

E S S S S E E S S S S S S S S E S S E E E E E
 
 |----------------------------||---------------------|
 |---------------------------o||---------------------|
 |----------------------------||---------------------|
 |----------------------------||---------------------|
 |-9-----------8-------------o||---------------3-2---|
 |---7-7-8-7-6---6-6-7-6-6-6--||-1-1-1-1-1-2-3-----3-|

|
 
 | PM------| PM------------------------|

| E S S S S E E S S S S S S S S E S S E H
 
 |----------------------------||---------------------|
 |---------------------------o||---------------------|
 |----------------------------||---------------------|
 |-7-----------6--------------||---------------------|
 |---5-5-6-5-4---4-4-5-4-4-4-o||---------------------|
 |----------------------------||-1-1-1-1-1-2---------|

Chorus 2
N.C.
Gtrs I, II
 
 PM------| PM--------|

E S S S S E E S S S S S S
 
 ||----------------------------|
 ||o---------------------------|
 ||----------------------------|
 ||----------------------------|
 ||o---------------------------|
 ||--6-3-3-3-3-3-5-2-2-2-2-2-2-|
 PM--------| PM--------| PM------| PM------|

E S S S S S S S S S S S S S S E S S S S E E S S S S E
 
 |-------------------------------|-------------------------|
 |-------------------------------|-------------------------|
 |-------------------------------|-------------------------|
 |-------------------------------|-------------------------|
 |-------------------------------|-------------------------|
 |-0-0-0-0-0-0-0-1p0-0-0-0-0-0-0-|-6-3-3-3-3-3-5-2-2-2-2-2-|

1.
N.C.
 
 PM------| PM--------| PM--------| PM--------|

E E E E E E E E E S S S S E E S S S S S S E S S S S S S S S S S S S S S
 
 |-----------------|---------------------------|-------------------------------|
 |-----------------|---------------------------|-------------------------------|
 |-----------------|---------------------------|-------------------------------|
 |-4p3---------2-1-|---------------------------|-------------------------------|
 |---------1-2-----|---------------------------|-------------------------------|
 |-----2p1---------|-6-3-3-3-3-3-5-2-2-2-2-2-2-|-0-0-0-0-0-0-0-1p0-0-0-0-0-0-0-|

N.C.
 
 PM------| PM------|

S S S S S S E S S S S S S E
 
 |------------------------------|
 |------------------------------|
 |------------------------------|
 |------------------------------|
 |------------------------------|
 |-4p3-3-3-3-3-3-3-\2-2-2-2-2-2-|

2.
[G#5]  
 
 PM------| PM------| PM--------|

S S S S S S E S S S S S S E S S S S S S S S E E Q
 
 |-------------------------------||------------------------|
 |------------------------------o||------------------------|
 |-------------------------------||------------------------|
 |-------------------------------||------------------------|
 |------------------------------o||-----------------5------|
 |-6p5-5-5-5-5-5-5-\4-4-4-4-4-4--||-1p0-0-0-0-0-0-0-3------|

Bridge
Q=211
[(G#m)]Gtr I[(Gm)] [(G#m)] [(Gm)]
 
 PM------| PM------| PM------| PM------| PM------| PM------|

E S S S S E E S S S S E E S S S S E E S S S S E E S S S S E E S S S S E
 
 |-------------------------|-------------------------|-------------------------|
 |-------------------------|-------------------------|-------------------------|
 |-------------------------|-------------------------|-------------------------|
 |-6-----------5-----------|-5-----------6-----------|-5-----------5-----------|
 |-------------------------|-------------------------|-------------------------|
 |---4-4-4-4-4---3-3-3-3-3-|---3-3-3-3-3---4-4-4-4-4-|---3-3-3-3-3---3-3-3-3-3-|

|
| Gtr II
 
 | PM------| PM------| PM------| PM------| PM------| PM------|

| E S S S S E E S S S S E E S S S S E E S S S S E E S S S S E E S S S S E
 
 |-------------------------|-------------------------|-------------------------|
 |-------------------------|-------------------------|-------------------------|
 |-4-----------3-----------|-3-----------4-----------|-3-----------3-----------|
 |-------------------------|-------------------------|-------------------------|
 |-------------------------|-------------------------|-------------------------|
 |---1-1-2-1-1---0-0-1-0-0-|---0-0-1-0-0---1-1-2-1-1-|---0-0-1-0-0---0-0-1-0-0-|

[(Am)] [(Abm)] [(Gm)] [(G#m)]  
 
 PM------| PM------| PM------| PM------| PM------| PM------|

E S S S S E E S S S S E E S S S S E E S S S S E E S S S S E E S S S S E
 
 |-------------------------|-------------------------|-------------------------|
 |-------------------------|-------------------------|-------------------------|
 |-------------------------|-------------------------|-------------------------|
 |-7-----------6-----------|-5-----------5-----------|-5-----------6-----------|
 |-------------------------|-------------------------|-------------------------|
 |---5-5-5-5-5---4-4-4-4-4-|---3-3-3-3-3---3-3-3-3-3-|---3-3-3-3-3---4-4-4-4-4-|

|
 
 | PM------| PM------| PM------| PM------| PM------| PM------|

| E S S S S E E S S S S E E S S S S E E S S S S E E S S S S E E S S S S E
 
 |-------------------------|-------------------------|-------------------------|
 |-------------------------|-------------------------|-------------------------|
 |-5-----------4-----------|-3-----------3-----------|-3-----------4-----------|
 |-------------------------|-------------------------|-------------------------|
 |-------------------------|-------------------------|-------------------------|
 |---2-2-3-2-2---1-1-2-1-1-|---0-0-1-0-0---0-0-1-0-0-|---0-0-1-0-0---1-1-2-1-1-|

[(Gm)] [(Bbm)] [(Am)] [(G#m)] [(Gm)]  
 
 PM------| PM------| PM------| PM------| PM------| PM------|

E S S S S E E S S S S E E S S S S E E S S S S E E S S S S E E S S S S E
 
 |-------------------------|-------------------------|-------------------------|
 |-------------------------|-------------------------|-------------------------|
 |-------------------------|-------------------------|-------------------------|
 |-5-----------8-----------|-7-----------6-----------|-5-----------5-----------|
 |-------------------------|-------------------------|-------------------------|
 |---3-3-3-3-3---6-6-6-6-6-|---5-5-5-5-5---4-4-4-4-4-|---3-3-3-3-3---3-3-3-3-3-|

|
 
 | PM------| PM------| PM------| PM------| PM------| PM------|

| E S S S S E E S S S S E E S S S S E E S S S S E E S S S S E E S S S S E
 
 |-------------------------|-------------------------|-------------------------|
 |-------------------------|-------------------------|-------------------------|
 |-3-----------6-----------|-5-----------4-----------|-3-----------3-----------|
 |-------------------------|-------------------------|-------------------------|
 |-------------------------|-------------------------|-------------------------|
 |---0-0-1-0-0---3-3-4-3-3-|---2-2-3-2-2---1-1-2-1-1-|---0-0-1-0-0---0-0-1-0-0-|

[(G#m)] [(Gm)] [(Am)] [(G#m)] [(Gm)]  
 
 PM------| PM------| PM------| PM------| PM------| PM------|

E S S S S E E S S S S E E S S S S E E S S S S E E S S S S E E S S S S E
 
 |-------------------------|-------------------------|-------------------------|
 |-------------------------|-------------------------|-------------------------|
 |-------------------------|-------------------------|-------------------------|
 |-6-----------5-----------|-5-----------7-----------|-6-----------5-----------|
 |-------------------------|-------------------------|-------------------------|
 |---4-4-4-4-4---3-3-3-3-3-|---3-3-3-3-3---5-5-5-5-5-|---4-4-4-4-4---3-3-3-3-3-|

|
 
 | PM------| PM------| PM------| PM------| PM------| PM------|

| E S S S S E E S S S S E E S S S S E E S S S S E E S S S S E E S S S S E
 
 |-------------------------|-------------------------|-------------------------|
 |-------------------------|-------------------------|-------------------------|
 |-4-----------3-----------|-3-----------5-----------|-4-----------3-----------|
 |-------------------------|-------------------------|-------------------------|
 |-------------------------|-------------------------|-------------------------|
 |---1-1-1-1-1---0-0-0-0-0-|---0-0-0-0-0---2-2-2-2-2-|---1-1-1-1-1---0-0-0-0-0-|

[(Gm)] [(G#m)] [(Gm)] [(Bbm)] [(Am)]  
 
 PM------| PM------| PM------| PM------| PM------| PM------|

E S S S S E E S S S S E E S S S S E E S S S S E E S S S S E E S S S S E
 
 |-------------------------|-------------------------|-------------------------|
 |-------------------------|-------------------------|-------------------------|
 |-------------------------|-------------------------|-------------------------|
 |-5-----------5-----------|-6-----------5-----------|-8-----------7-----------|
 |-------------------------|-------------------------|-------------------------|
 |---3-3-3-3-3---3-3-3-3-3-|---4-4-4-4-4---3-3-3-3-3-|---6-6-6-6-6---5-5-5-5-5-|

|
 
 | PM------| PM------| PM------| PM------| PM------| PM------|

| E S S S S E E S S S S E E S S S S E E S S S S E E S S S S E E S S S S E
 
 |-------------------------|-------------------------|-------------------------|
 |-------------------------|-------------------------|-------------------------|
 |-3-----------3-----------|-4-----------3-----------|-6-----------5-----------|
 |-------------------------|-------------------------|-------------------------|
 |-------------------------|-------------------------|-------------------------|
 |---0-0-0-0-0---0-0-0-0-0-|---1-1-1-1-1---0-0-0-0-0-|---3-3-4-3-3---2-2-3-2-2-|

N.C.
 
 PM--------| PM--------|

E S S S S S S E S S S S S S
 
 |-----------------------------|
 |-----------------------------|
 |-----------------------------|
 |-6-------------5-------------|
 |-----------------------------|
 |---4-4-4-4-4-4---3-3-3-3-3-3-|

|
 
 | PM--------| PM--------|

| E S S S S S S E S S S S S S
 
 |-----------------------------|
 |-----------------------------|
 |-----------------------------|
 |-6-------------5-------------|
 |-----------------------------|
 |---4-4-4-4-4-4---3-3-3-3-3-3-|
 PM------| PM------| PM------| PM------|

E S S S S E E S S S S E E S S S S E E S S S S E
 
 |-------------------------|-------------------------|
 |-------------------------|-------------------------|
 |-------------------------|-------------------------|
 |-5-----------6-----------|-5-----------5-----------|
 |-------------------------|-------------------------|
 |---3-3-3-3-3---4-4-4-4-4-|---3-3-3-3-3---3-3-3-3-3-|

|
 
 | PM------| PM------| PM------| PM------|

| E S S S S E E S S S S E E S S S S E E S S S S E
 
 |-------------------------|-------------------------|
 |-------------------------|-------------------------|
 |-------------------------|-------------------------|
 |-5-----------6-----------|-5-----------5-----------|
 |-------------------------|-------------------------|
 |---3-3-3-3-3---4-4-4-4-4-|---3-3-3-3-3---3-3-3-3-3-|

N.C.
 
 PM------| PM------| PM------| PM------| PM------| PM------|

E S S S S E E S S S S E E S S S S E E S S S S E E S S S S E E S S S S E
 
 |-------------------------|-------------------------|-------------------------|
 |-------------------------|-------------------------|-------------------------|
 |-------------------------|-------------------------|-------------------------|
 |-7-----------6-----------|-5-----------5-----------|-5-----------6-----------|
 |-------------------------|-------------------------|-------------------------|
 |---5-5-5-5-5---4-4-4-4-4-|---3-3-3-3-3---3-3-3-3-3-|---3-3-3-3-3---4-4-4-4-4-|

|
 
 | PM------| PM------| PM------| PM------| PM------| PM------|

| E S S S S E E S S S S E E S S S S E E S S S S E E S S S S E E S S S S E
 
 |-------------------------|-------------------------|-------------------------|
 |-------------------------|-------------------------|-------------------------|
 |-------------------------|-------------------------|-------------------------|
 |-7-----------6-----------|-5-----------5-----------|-5-----------6-----------|
 |-------------------------|-------------------------|-------------------------|
 |---5-5-5-5-5---4-4-4-4-4-|---3-3-3-3-3---3-3-3-3-3-|---3-3-3-3-3---4-4-4-4-4-|

(Em) (Eb5) N.C.
 
 PM------| PM------| PM------| PM------| PM------| PM------|

E S S S S E E S S S S E E S S S S E E S S S S E E S S S S E E S S S S E
 
 |-------------------------|-------------------------|-------------------------|
 |-------------------------|-------------------------|-------------------------|
 |-------------------------|-------------------------|-------------------------|
 |-2-----------2-----------|-7-----------6-----------|-5-----------5-----------|
 |-------------------------|-------------------------|-------------------------|
 |---0-0-0-0-0---0-0-0-0-0-|---5-5-5-5-5---4-4-4-4-4-|---3-3-3-3-3---3-3-3-3-3-|

|
 
 | PM------| PM------| PM------| PM------| PM------| PM------|

| E S S S S E E S S S S E E S S S S E E S S S S E E S S S S E E S S S S E
 
 |-------------------------|-------------------------|-------------------------|
 |-------------------------|-------------------------|-------------------------|
 |-------------------------|-------------------------|-------------------------|
 |-5-----------8-----------|-7-----------6-----------|-5-----------5-----------|
 |-------------------------|-------------------------|-------------------------|
 |---3-3-3-3-3---6-6-6-6-6-|---5-5-5-5-5---4-4-4-4-4-|---3-3-3-3-3---3-3-3-3-3-|

N.C.
 
 PM------| PM------| PM------| PM------| PM------| PM------|

E S S S S E E S S S S E E S S S S E E S S S S E E S S S S E E S S S S E
 
 |-------------------------|-------------------------|-------------------------|
 |-------------------------|-------------------------|-------------------------|
 |-------------------------|-------------------------|-------------------------|
 |-6-----------5-----------|-5-----------7-----------|-6-----------5-----------|
 |-------------------------|-------------------------|-------------------------|
 |---4-4-4-4-4---3-3-3-3-3-|---3-3-3-3-3---5-5-5-5-5-|---4-4-4-4-4---3-3-3-3-3-|

|
 
 | PM------| PM------| PM------| PM------| PM------| PM------|

| E S S S S E E S S S S E E S S S S E E S S S S E E S S S S E E S S S S E
 
 |-------------------------|-------------------------|-------------------------|
 |-------------------------|-------------------------|-------------------------|
 |-------------------------|-------------------------|-------------------------|
 |-6-----------5-----------|-5-----------7-----------|-6-----------5-----------|
 |-------------------------|-------------------------|-------------------------|
 |---4-4-4-4-4---3-3-3-3-3-|---3-3-3-3-3---5-5-5-5-5-|---4-4-4-4-4---3-3-3-3-3-|

N.C. (Em)
 
 PM------| PM------| PM------| PM------|

E S S S S E E S S S S E E S S S S E E S S S S E
 
 |-------------------------|-------------------------|
 |-------------------------|-------------------------|
 |-------------------------|-------------------------|
 |-5-----------5-----------|-6-----------2-----------|
 |-------------------------|-------------------------|
 |---3-3-3-3-3---3-3-3-3-3-|---4-4-4-4-4---0-0-0-0-0-|

|
 
 | PM------| PM------| PM------| PM------|

| E S S S S E E S S S S E E S S S S E E S S S S E
 
 |-------------------------|-------------------------|
 |-------------------------|-------------------------|
 |-------------------------|-------------------------|
 |-5-----------5-----------|-6-----------5-----------|
 |-------------------------|-------------------------|
 |---3-3-3-3-3---3-3-3-3-3-|---4-4-4-4-4---3-3-3-3-3-|

(Eb5) N.C.
 
 PM------| PM--------|

E S S S S E E S S S S S S
 
 |----------------------------|
 |----------------------------|
 |----------------------------|
 |-2-----------7--------------|
 |----------------------------|
 |---0-0-0-0-0---5-5-5-5-5-5--|

|
 
 | PM------| PM--------|

| E S S S S E E S S S S S S
 
 |----------------------------|
 |----------------------------|
 |----------------------------|
 |-8-----------7--------------|
 |----------------------------|
 |---6-6-6-6-6---5-5-5-5-5-5--|

Pre-Chorus
Q=217
N.C.
 
 PM--------| PM--------| PM--------| PM-----------

S S E S S E S S S S S S S S S S S S S S S S S S S S S S S S
 
 |-----------------------------|---------------------------------|
 |-----------------------------|---------------------------------|
 |-----------------------------|---------------------------------|
 |-----------------------------|---------------------------------|
 |-------------4p0-0-0-0-0-0-0-|---------------------------------|
 |-0-1-0-1-2-1-----------------|-8p4-4-4-4-4-4-4-7p3-3-3-3-3-3-3-|

|
 
 | PM--------|

| S S E S S E H W
 
 |-----------------------------|---------------------------------|
 |-----------------------------|---------------------------------|
 |-----------------------------|---------------------------------|
 |-----------------------------|---------------------------------|
 |-----------------------------|---------------------------------|
 |-0-1-0-1-2-1-----------------|---------------------------------|
 -----------| PM--------|

S S E S S E S S S S S S S S
 
 |--------------------------------|
 |--------------------------------|
 |--------------------------------|
 |--------------------------------|
 |-------------4p0-0-0-0-0-0-0----|
 |-0-1-0-1-2-1--------------------|

|
 
 | PM--------|

| S S E S S E H
 
 |--------------------------------|
 |--------------------------------|
 |--------------------------------|
 |--------------------------------|
 |--------------------------------|
 |-0-1-0-1-2-1--------------------|

N.C.
 
 PM--------| PM----------------------| PM--------|

S S S S S S S S S S S S S S S S S S E S S E S S S S S S S S
 
 |---------------------------------|-----------------------------|
 |---------------------------------|-----------------------------|
 |---------------------------------|-----------------------------|
 |---------------------------------|-----------------------------|
 |-----------------6p2-2-2-2-2-2-2-|-------------4p0-0-0-0-0-0-0-|
 |-8p4-4-4-4-4-4-4-----------------|-0-1-0-1-2-1-----------------|

|
 
 | PM--------|

| W S S E S S E H
 
 |---------------------------------|-----------------------------|
 |---------------------------------|-----------------------------|
 |---------------------------------|-----------------------------|
 |---------------------------------|-----------------------------|
 |---------------------------------|-----------------------------|
 |---------------------------------|-0-1-0-1-2-1-----------------|
 PM--------| PM--------|

S S S S S S S S S S S S S S S S
 
 |----------------------------------|
 |----------------------------------|
 |----------------------------------|
 |----------------------------------|
 |----------------------------------|
 |-8p4-4-4-4-4-4-4-7p3-3-3-3-3-3-3--|

|
| W
 
 |----------------------------------|
 |----------------------------------|
 |----------------------------------|
 |----------------------------------|
 |----------------------------------|
 |----------------------------------|

N.C. F5F#F5F#G5
 
 PM--------| PM------------------|

S S E S S E S S S S S S S S E E E E E E Q
 
 |-----------------------------|----------------|
 |-----------------------------|----------------|
 |-----------------------------|----------------|
 |-----------------------------|----------------|
 |-----------------------------|-3-4-3-4-5------|
 |-0-1-0-1-2-1-5p1-1-1-1-1-1-1-|-1-2-1-2-3------|

|
 
 | PM--------| PM----|

| S S E S S E H E E E E E E Q
 
 |-----------------------------|----------------|
 |-----------------------------|----------------|
 |-----------------------------|----------------|
 |-----------------------------|----------------|
 |-----------------------------|-3-4-3-4-5------|
 |-0-1-0-1-2-1-----------------|-1-2-1-2-3------|

Out-Chorus
N.C.
Gtrs I, II
 
 PM------| PM--------|

E S S S S E E S S S S S S
 
 ||----------------------------|
 ||o---------------------------|
 ||----------------------------|
 ||----------------------------|
 ||o---------------------------|
 ||--6-3-3-3-3-3-5-2-2-2-2-2-2-|
 PM--------| PM--------| PM------| PM------|

E S S S S S S S S S S S S S S E S S S S E E S S S S E
 
 |-------------------------------|-------------------------|
 |-------------------------------|-------------------------|
 |-------------------------------|-------------------------|
 |-------------------------------|-------------------------|
 |-------------------------------|-------------------------|
 |-0-0-0-0-0-0-0-1p0-0-0-0-0-0-0-|-6-3-3-3-3-3-5-2-2-2-2-2-|

N.C.
 
 PM------| PM--------| PM--------| PM--------|

E E E E E E E E E S S S S E E S S S S S S E S S S S S S S S S S S S S S
 
 |-----------------|---------------------------|-------------------------------|
 |-----------------|---------------------------|-------------------------------|
 |-----------------|---------------------------|-------------------------------|
 |-4p3---------2-1-|---------------------------|-------------------------------|
 |---------1-2-----|---------------------------|-------------------------------|
 |-----2p1---------|-6-3-3-3-3-3-5-2-2-2-2-2-2-|-0-0-0-0-0-0-0-1p0-0-0-0-0-0-0-|

N.C.
 
 PM------| PM------|

S S S S S S E S S S S S S E
 
 |------------------------------|
 |------------------------------|
 |------------------------------|
 |------------------------------|
 |------------------------------|
 |-4p3-3-3-3-3-3-3-\2-2-2-2-2-2-|

1. 2.
[F5F#F5F#G5]  
 
 PM------| PM------------------|

S S S S S S E S S S S S S E E E E E E E Q
 
 |-------------------------------||----------------*|
 |------------------------------o||----------------*|
 |-------------------------------||----------------*|
 |-------------------------------||----------------*|
 |------------------------------o||-3-4-3-4-5------*|
 |-6p5-5-5-5-5-5-5-\4-4-4-4-4-4--||-1-2-1-2-3------*|

End.

Important: The song above is NOT stored on the Chordie server. The original song is hosted at www.guitaretab.com. Chordie works as a search engine and provides on-the-fly formatting. Chordie does not index songs against artists'/composers' will. To remove this song please click here.

Text color:
Chord color:
Chord grids: 
Font size:    
Page size: 

A5 G#5
Rate #0 of 4 versions

Login - add to songbook

SHARE PAGE  



You need to log in to post comments