Guitar Tabs, Chords and Lyrics
Major upgrade!! After one year development the new version of Chordie is now online! Please give feedback.


Roadside   Hater

 
 |------------------------------------|------------------------------------|
 |------------------------------------|------------------------------------|
 |------------------------------------|------------------------------------|
 |-7--------7---7---7---------6---5---|-4--\--3--3---3---3---3----3---3----|
 |-7--------7---7---7---------6---5---|-4--\--3--3---3---3---3----3---3----|
 |-5--------5---5---5---------4---3---|-2--\--1--1---1---1---1----1---1----|

 


 


 [1] [2] [3] [4] [1] [2] [3] [4]  

 
 |------------------------------------|------------------------------------|
 |------------------------------------|------------------------------------|
 |------------------------------------|------------------------------------|
 |-3--/-5-\--3--3-------3----3---3----|-3--/-5-\--3--3-------3----3---3----|
 |-3--/-5-\--3--3-------3----3---3----|-3--/-5-\--3--3-------3----3---3----|
 |-1--/-3-\--1--1-------1----1---1----|-1--/-3-\--1--1-------1----1---1----|

 


 


 [1] [2] [3] [4]  

 
 |------------------------------------|
 |------------------------------------|
 |------------------------------------|
 |-3--/-5-\--3--3-------3----3---3----| drums and bass enter here
 |-3--/-5-\--3--3-------3----3---3----| bassline plays root notes of chords
 |-1--/-3-\--1--1-------1----1---1----| and second guitar doubles first

 


 


 Bridge:


 


 [1] [2] [3] [4] [1] [2] [3] [4]  

 
 |------------------------------------|------------------------------------|
 |------------------------------------|------------------------------------|
 |------------------------------------|------------------------------------|
 |-7--------7---7---7--------7---7----|-10-------10--10--10---10--10---10--|
 |-7--------7---7---7--------7---7----|-10-------10--10--10---10--10---10--|
 |-5--------5---5---5--------5---5----|-8--------8---8---8----8---8----8---|

 


 


 [1] [2] [3] [4] [1] [2] [3] [4]  

 
 |------------------------------------|------------------------------------|
 |------------------------------------|------------------------------------|
 |------------------------------------|------------------------------------|
 |-12-------12--12--12--11--10---9----|-8---8----8---8---8---8----8---8----|
 |-12-------12--12--12--11--10---9----|-8---8----8---8---8---8----8---8----|
 |-10-------10--10--10--9---8----7----|-6---6----6---6---6---6----6---6----|

 


 


 Then go back to the Intro/Chorus


 


 Then during the "Chorus" the last time there is a backwards guitar solo.


 That should be just about it. It varies a little at the end but you'll be


 able to figure it out.


 \|||/


 ( o o ) Wesley Torres - jiffypop@mail.ibcco.com


 

 
 +-.oooO--(_)--Oooo.---------------------------------------+

 


 "Duct tape is a lot like the force. It


 .oooO has a light side and a dark side and it


 ( ) Oooo. holds the universe together."


 

 
 +---\ (----( )------------------------------------------+


Important: The song above is NOT stored on the Chordie server. The original song is hosted at www.guitaretab.com. Chordie works as a search engine and provides on-the-fly formatting. Chordie does not index songs against artists'/composers' will. To remove this song please click here.

This song is displayed as text-only. Transposing and tuning is only available for chordpro-songs.
Rate #2 of 4 versions

Jango Player

Login - add to songbook

SHARE PAGE  



You need to log in to post comments