Guitar Tabs, Chords and Lyrics
Server problems seems to be fixed. Chordie has been experiencing problems with songs disappearing. These issues now seems to be fixed, but still verifying the fix. If you find anything strange, please email admin@chordie.com.


Just Like Me  Hawk Nelson

 
 ----------------------------------------------------------------------------

Hawk Nelson - Just Like Me
 
 ----------------------------------------------------------------------------

Tabbed by: Michael Cage
Email: gamecentral1@live.com
Tuning: Standard Tunning
Intro: Gtr 1
Gtr 2
C F Ab G ( Ten Not One And Zero )
 
 e|---------------------------------------------------------------------------|
 B|---------------------------------------------------------------------------|
 G|-5-------------------------7----------------7------------------------------|
 D|-5----3----6----5---------5-8---8109-------5-8-----------------------------|
 A|-3...-3----6----5------3/7-----6----10--3/7-------635...-------------------|
 E|------1...-4...-3...-----------------------------4-------------------------|

Verse:
 
 e|--------------------------------------------------------------------------|
 B|--------------------------------------------------------------------------|
 G|--------------------------------------------------------------------------|
 D|------------------------------5-5-----2-2------5-5-----2-2----------------|
 A|-3-3---0-0----3-3---0-0-33--3-3-3-2-2-0-0-3-35-3-3-2-2-0-0-3333-----------|
 E|----0-0---1013---0-0----11--1-----0-0-----1013-----0-0-----1111-----------|

Pre-Chorus ( FAST )
 
 e|--------------------------------------------------------------------------|
 B|-------------------0------------------------------------------------------|
 G|---0-----0--------0-0-----------0------0----------------------------------|
 D|--0-0---0-0----------5/3\5-----0-0----0-0--55-----------------------------|
 A|-----2/3------3/5------------------2/3-----55-----------------------------|
 E|-3---------------------------3-------------33-----------------------------|

Chorus:
[C] [F/C] [G] [Ab] [C] [F/C] [D] [G] [C] [F/C] [G] [Ab] [A#] [B]  
 
 e|--------------------------------------------------------------------------|
 B|--------------------------------------------------------------------------|
 G|-5----5--------------5----5----7---------5----5---------------------------|
 D|-5----3----5----6----5----3----7----5----5----3----5----6----8----9\------|
 A|-3...-3...-5----6----3...-3...-5...-5----3...-3...-5----6----8----9\------|
 E|-----------3...-4...----------------3...-----------3...-4...-6...-7\------|

Bridge:
Gtr 1 w/ Chorus The C Is Played 3 Times The 1st Time!
[C] [C/Bb] [C/A] [Ab]  
 
 e|--------------------------------------------------------------------------|
 B|-----1-----------1------------1-------------1-----------------------------|
 G|----0-0---------0-0----------0-0-----------1-1----------------------------|
 D|--23---32-----23---32------23---32-------13---31--------------------------|
 A|-3-----------1------------0-----------------------------------------------|
 E|---------------------------------------4----------------------------------|

( Last Chord )
Gtr 2 G G C
 
 e|--------------------------------------------------------------------------|
 B|--------------------------------------------------------------------------|
 G|-----------------------------0---------------5----------------------------|
 D|----------------6-------5----0---------------5----------------------------|
 A|-10---8----7----6-------5-OR-----------------3----------------------------|
 E|-8...-6...-5...-4...----3----3--------------------------------------------|

| / slide up
| \ slide down
| h hammer-on
| p pull-off
| ~ vibrato
| + harmonic
| x Mute note
============================================================================

Important: The song above is NOT stored on the Chordie server. The original song is hosted at www.guitaretab.com. Chordie works as a search engine and provides on-the-fly formatting. Chordie does not index songs against artists'/composers' will. To remove this song please click here.

Text color:
Chord color:
Chord grids: 
Font size:    
Page size: 

A# Ab B C D F/C G
Rate #1 of 2 versions

Jango Player

Login - add to songbook

SHARE PAGE  




You need to log in to post comments