Guitar Tabs, Chords and Lyrics
Server problems seems to be fixed. Chordie has been experiencing problems with songs disappearing. These issues now seems to be fixed, but still verifying the fix. If you find anything strange, please email admin@chordie.com.


Corps of Corpses  Hawthorne Heights

This was a request tab by Aurigo. Sorry for the tab being so long. Anyway please rate
leave feedback. :)
Chords used in this tab
F# a e d c#
 
 E|----------------|
 B|----------------|
 G|-----------7--5-|
 D|-4---7---2-7--5-|
 A|-4---7---2-5--3-|
 D|-4---7---2------|

[F#]And all of the corpses
Walk step by [a]step
e d
To the rhythm of their once beating hearts
f#
Over and over they march
On and on to the [a]same old songs
e d
Trying to find something worth living for
Pre verse (0:34)
 
 E|--------------------------|
 B|--------------------------|
 G|-------------6-6-6-9-9-9--|
 D|-4-4-7-7-7---6-6-6-9-9-9--|
 A|-4-4-7-7-7---4-4-4-7-7-7--|
 D|-4-4-7-7-7----------------|

play both parts back to back
 
 E|--------------------------| then repeat a second time
 B|--------------------------|
 G|-------------6-6-6-4-4-4--|
 D|-4-4-7-7-7---6-6-6-4-4-4--|
 A|-4-4-7-7-7---4-4-4-2-2-2--|
 D|-4-4-7-7-7----------------|

f# e
No more ghost or memories that hold me back
f# e
A fresh start is all I have ever ask
f# e
I watch my body slowly turn from blue to black
[C#]And on, and on, and on
f# e
Sometimes it hurts the most to be who you are
f# e
You can change your mind, you can't change your heart
f# e
To find the end you got to know where to start
c#
And on, and on, and on
Lead over verse (work out strumming pattern)
 
 E|----------------------------------------|
 B|----------------------------------------|
 G|-11-11-14-14-11-11-11-11-11-11-14-14-14-|
 D|----------------------------------------|
 A|-9--9--12-12-9--9--9--9--9--9-12-12-12--|
 D|----------------------------------------|
 E|-------------------------------------------------|
 B|-------------------------------------------------|
 G|-11-11-11-11-11-11-11-9-9-9-11-14-14-14-14-13-13-|
 D|-------------------------------------------------|
 A|-9--9--9--9--9--9--9--7-7-7-9-/12-12-12-12-11-11-|
 D|-------------------------------------------------|
 E|----------------------------------|
 B|----------------------------------|
 G|-16-18-18-18-18-18-18-16-16-14-18-|
 D|----------------------------------|
 A|-14-16-16-16-16-16-16-14-14-12-16-|
 D|----------------------------------|

(CHORUS) (1:12)
d a e
You said she is so evil, but
f# d
She looks like heaven to me
a e
I follow her to hell and back again
d a e
I swear I sign my name in blood
f# d
That dripped down from our veins
a e
I swore I'd never tell
(Verse2)
F# e
I know where to go What sky, stars align
f# e
Point to blame, clear your name, or just kill the time
f# e
My dreams slowly turn, they turn to black and white
c#
They die, they die, they die
(SECOND CHORUS)
Interlude (2:19)
 
 E|-------------------|
 B|-------------------|
 G|-6v--8bu(9)-9-9-9--| And on, and on, and on
 D|-------------------|
 A|-------------------|
 D|-------------------|

Solo (2:17)
 
 E|-----12p9------------------------------|
 B|----------10---10---12p10---10p9---/17-|
 G|-9-9---------9----9-------9------9-----| x2
 D|---------------------------------------|
 A|---------------------------------------|
 D|---------------------------------------|
 E|---------------------------------|
 B|-------17--------17------17------|
 G|----13--------13------13-----/16-|
 D|-14--------14-------14-----------| I'm not 100% about solo.
 A|---------------------------------|
 D|---------------------------------|
 E|-------17-------17-----17---17--22-22-|
 B|----14--------------------------------|
 G|-14-------14/16-----18----19----------|
 D|--------------------------------------|
 A|--------------------------------------|
 D|--------------------------------------|

(FINAL CHORUS)
 
 E|-22-21-19-17--22-21----16-|
 B|--------------------------|
 G|--------------------------| lead over final chorus
 D|--------------------------| after solo
 A|--------------------------|
 D|--------------------------|

Outro
 
 E|--------------------------|
 B|--------------------------|
 G|-------------6-6-6-9-9-9--|
 D|-4-4-7-7-7---6-6-6-9-9-9--|
 A|-4-4-7-7-7---4-4-4-7-7-7--|
 D|-4-4-7-7-7----------------|
 E|--------------------------|
 B|--------------------------|
 G|-------------6-6-6-4-4-4--|
 D|-4-4-7-7-7---6-6-6-4-4-4--|
 A|-4-4-7-7-7---4-4-4-2-2-2--|
 D|-4-4-7-7-7----------------|


Important: The song above is NOT stored on the Chordie server. The original song is hosted at www.guitaretab.com. Chordie works as a search engine and provides on-the-fly formatting. Chordie does not index songs against artists'/composers' will. To remove this song please click here.

Text color:
Chord color:
Chord grids: 
Font size:    
Page size: 

C# F#
Rate #1 of 3 versions

Login - add to songbook

SHARE PAGE  




You need to log in to post comments