Guitar Tabs, Chords and Lyrics
Server problems seems to be fixed. Chordie has been experiencing problems with songs disappearing. These issues now seems to be fixed, but still verifying the fix. If you find anything strange, please email admin@chordie.com.


Cross Me Off Your List  Hawthorne Heights

MY MESSAGE:
Well I was the one the tabbed the solo and the chorus but here is my real whole song
ive been practicing up and read the comments by jwhale or something he was saying alot of
stuff to me n made me feel stupid so I wanted to submit this whole tab and enjoy!
Standard tuning:
These Are MY Chords to play like made up chords but sorry lol
*******************************************************************
[A] [B] [C] [D] 
 
 |---0-------- |---0------ |-------0------ |------0------|
 |---0-------- |---0------ |-------0------ |------0------|
 |---4-------- |---4------ |-------4------ |------2------|
 |---2-------- |---4------ |-------2------ |------2------|
 |---4-------- |---2------ |-------0------ |------0------|
 |------------ |---------- |-------------- |-------------|

********************************************************************
[Beginning] 
 
 |---------------------------------|
 |---------------------------------|
 |--6------------------------------| [Play 6 times]
 |--6----2----4----7-7-------------|
 |--4----2----4----7-7-------------|
 |-------0----2----5-5-------------|

[A]So Let Us, [B]Concentrate, [C]On All Those Things,[B] You Love To Hate.
[A]It makes this, [B]all worth a wait but, [C]causes us to[B], seperate
[A]And I dont know [B]how I should feel
[C]these lights make it [B]all seem real[C]
****************************************************************************
[Cborus] 
A)Can You See This...
B)Can You Feel This...
 
 |----------------------------------------------------|
 |----------------------------------------------------|
 |------9/7------9------------------------------------| Continue below Chorus
 |-11---9/7---9--9~[Count to 3 while strumming]-------|
 |-11---------9--7------------------------------------|
 |--9---------7---------------------------------------|

A)Or Wear It On Your Wrist...
B)Cross Me Off Your List...
 
 |----------------------------------------------------|
 |----------------------------------------------------|
 |------9/7-----11------------------------------------|
 |-11---9/7---9--9~[Count to 3 while strumming]-------|
 |-11---------9--7------------------------------------|
 |--9---------7---------------------------------------|

A)Its Everything You Wanted, The Mark You Always Missed
B)Shes everything you wanted, the mark you always missed
 
 |---------------------------------------------------------------------------|
 |---------------------------------------------------------------------------| Continue
 |---------------------------------------------------------------- up start--|
 |----7----------------------------------7/2-----4---------------------------| -ing on B)
 |----7--[strum about 8 times i think]---7/2-----4-Strum about 7x------------|
 |----5----------------------------------5/0-----2---------------------------|

[Cborus] 
*************************************************************************
A.....
[A]With dry eyes, [B]and steady hands, [C]I tried so hard, t[B]o understand
[A]Why you left us, [B]all alone, [C]Three broken hearts with a, [B]broken home
[A]And I Dont know, h[B]ow I should feel, [C]these lights make it, [B]all seem real[C]
[Go back to cborus]...
Solo
 
 |-------------------7-------------------------5-------|
 |----5---7---9---7-----7------5---7---9---7-------7---|
 |-----------------------------------------------------|
 |-----------------------------------------------------|
 |-----------------------------------------------------|
 |-----------------------------------------------------|
 |-------------------7-------------------------7~------|
 |----5---7---9---7-----7------5---7---9---7-----------|
 |-----------------------------------------------------|
 |-----------------------------------------------------|
 |-----------------------------------------------------|
 |-----------------------------------------------------|

[CROSS ME OFF.. CROSS ME OFF YOU LIST!] 
[17x] [12x]~ [17x] [9x] [12x]~
 
 |---7------9------10-----12----15---------------------|
 |-----------------------------------------------------|
 |-----------------------------------------------------|
 |-----------------------------------------------------|
 |-----------------------------------------------------|
 |-----------------------------------------------------|

[A]Can you feel [D]this [A]or wear it on your [B]wrist
[A]its everything u wanted [C] [B] [A]the mark you always [D]missed...
[ Rub You Guitar Pick Against tbe Biggest String Down Until U Bit Tbe First Fret ] (If u
what i mean)
Go back to the chorus
 
 |--------------|
 |--------------|
 |--------------| way way at the ending
 |-4--2--~------|
 |-4--2--~------|
 |-2--0--~------|

~ = Let it ring
/ = Slide
Well thats it! congradutlations if u got it alll! lol

Important: The song above is NOT stored on the Chordie server. The original song is hosted at www.guitaretab.com. Chordie works as a search engine and provides on-the-fly formatting. Chordie does not index songs against artists'/composers' will. To remove this song please click here.

Text color:
Chord color:
Chord grids: 
Font size:    
Page size: 

A B C D
Rate #1 of 3 versions

Login - add to songbook

SHARE PAGE  




You need to log in to post comments