Guitar Tabs, Chords and Lyrics
Server problems seems to be fixed. Chordie has been experiencing problems with songs disappearing. These issues now seems to be fixed, but still verifying the fix. If you find anything strange, please email admin@chordie.com.


All About Us  He Is We

Title: All About Us
Artist: He Is We
Tempo = 86
Capo on 9th fret.
Chords:
G - 320003
D - xx0121
Cadd9 - x32030 (just C will work fine, too)
Am7 - x02010
G/B - x20003
D/F# - 20023x
Em7 - 020000
[cb]Em7/B[/cb] - x20000
Intro:
[G] [D]  
 
 E |-----------3-----------3----|-----------2-----------2----|
 B |-----3-----------3----------|-----3-----------3----------|
 G |----------------------------|----------------------------|
 D |----------------------------|--0-----0-----0-----0-------|
 A |----------------------------|----------------------------|
 E |--3-----3-----3-----3-------|----------------------------|

[Em7] [Cadd9] [D]  
 
 --------------------0-------------------------------|-----------2-----------2----|
 --------3-----------------------3-----------3-------|-----3-----------3----------|
 ----------------------------------------------------|----------------------------| x3
 --------------------------------------0h-2----------|--0-----0-----0-----0-------|
 --2-----------2-----------3-------------------------|----------------------------|
 ----------------------------------------------------|----------------------------|

[Intro]:
[G] [Em7] [Cadd9] [D]  
Take my [G]hand, I'll teach you to da[D]nce.
I'll spin you a[Em7]round,[Cadd9] won't let you fall [D]down.
Would you let me [G]lead, you can step on my [D]feet.
Give it a [Em7]try,[Cadd9] it'll be al[D]right.
[Begin strumming]:
[Am7]The room's hush, hush,
And [G/B]now's our moment.
[Cadd9]Take it in, feel it all and hold it.
[Am7]Eyes on you, [G/B]eyes on me.
W[Cadd9]e're doing this right.
Cause [G]lovers dance when they're feeling in love.
[D]Spotlight shinning, it's all about us.
It's [Cadd9]all... about [D]us...
And [G]every heart in the room will melt,
[D]This is a feeling I've never felt but,
It's [Cadd9]all... about [D]us.
Sudden[G]ly, I'm feeling [D]brave.
[cb]Em7/B[/cb] Cadd9 D
Don't know what's got into me, why I feel this way.
Can we [G]dance, real[D] slow?
[cb]Em7/B[/cb] Cadd9 D
Can I hold you, real close?
[Am7]The room's hush, hush,
And [G/B]now's our moment.
[Cadd9]Take it in, feel it all and hold it.
[Am7]Eyes on you, [G/B]eyes on me.
[Cadd9]We're doing this right.
Cause [G]lovers dance when they're feeling in love.
[D]Spotlight shinning, it's all about us.
It's [Cadd9]all... about [D]us...
And [G]every heart in the room will melt,
[D]This is a feeling I've never felt but,
It's [Cadd9]all... about [D]us.
[Em7]Do you hear that, love?
They're playing [D/F#]our song.
[G]Do you think we're ready?
Oh I'm really[D] feeling it.
[Em7]Do you hear that, love?[D/F#]
Do you [G]hear that, love?[D]
Do you [Em7]hear that, love?
They're playi[D/F#]ng our song.
[G]Do you think we're ready yet?
Oh I'm really[D] feeling it.
Do you [Em7]hear that, love?[D/F#]
Do you [G]hear that, love?[D]
Do you [G]hear that, love? They're playing our song.
[D]Do you think we're ready, yet? Oh I'm really feeling it.
Do you [Cadd9]hear that, love?
Do you [D]hear that, love?
[G]Lovers dance when they're feeling in love.
[D/F#]Spotlight shinning, it's all about us[Em7].
It's [D/F#]all...
[G]Every heart in the room will melt,
[D]This is a feeling I've never felt but,[Cadd9]
It's all... about [D]us.
Cause [G]lovers dance when they're feeling in love.
[D]Spotlight shinning, it's all about us.
It's [Cadd9]all... [D]
[G](Every heart in the room will melt)
[D]This is a feeling I've never felt but,[Cadd9]
It's all... It's [D]all about us.
~~~~~~~~~~~~~~~~
For the part that begins "Do you hear that, love?,"
I tabbed out what I think is being played in the lower register:
Q=quarter note
E=eight note
S=sixteenth note
Q.=dotted quarter note
r =rest
[Em7] Q. Q [D/F#] Q.
 
 ----------------------------|
 ----------------------------|
 ----------------------------|
 ----------------------------|
 ----------------------------|
 --0--------0-----2----------|

[G]Q S Q S [D]Q.
 
 ----------------------------------------------------|
 ----------------------------------------------------|
 ------------------------r---------------------------|
 ----------------------------------------------------|
 --------------0h-2--------------3-------------------|
 --3-------------------------------------------------|

[Em7]E E E S S S S [D/F#]Q.
 
 ----------------------------------------------------|
 ----------------------------------------------------|
 ----------------------------------------------------|
 --------0-------------------------------------------|
 ----------------------------------------------------|
 --0-----------0-----0--0--0--0--2-------------------|

[G] [D]  
 
 ----------------------------------------------------|
 ----------------------------------------------------|
 ---------------------r------------------------------|
 ----------------------------------------------------|
 --------------0h-2--------3-----2-----2-----0-------|
 --3-----3-------------------------------------------|


Important: The song above is NOT stored on the Chordie server. The original song is hosted at www.guitaretab.com. Chordie works as a search engine and provides on-the-fly formatting. Chordie does not index songs against artists'/composers' will. To remove this song please click here.

Text color:
Chord color:
Chord grids: 
Font size:    
Page size: 

Am7 Cadd9 D D/F# Em7 G G/B
Rate #1 of 14 versions

Jango Player

Login - add to songbook

SHARE PAGE  




You need to log in to post comments