Guitar Tabs, Chords and Lyrics
Major upgrade!! After one year development the new version of Chordie is now online! Please give feedback.


And   Headstones

 
 E :---------------------------------------|
 B :---------------------------------------|
 G :10-10-10-10--9--9--9--9-9-9-9-9-9-9-9-9|
 D :10-10-10-10-10-10-10-10-9-9-9-9-9-9-9-9|
 A :-8--8--8--8-10-10-10-10-7-7-7-7-7-7-7-7|
 E :-------------8--8--8--8----------------|

 


 


 [Riff 2 - End of Verse (right before the chorus)


 

 
 E :---------------------------------------|
 B :---------------------------------------|
 G :10-10-10-10----------------------------|
 D :10-10-10-10-10-10-10-10-7-7-7-7-7-7-7-7|
 A :-8--8--8--8-10-10-10-10-7-7-7-7-7-7-7-7|
 E :-------------8--8--8--8-5-5-5-5-5-5-5-5|

 


 


 [Riff 3 - Cborus Riff (Let's not find tbe weakness...)] 


 

 
 E :--------------------------|-----------------------|
 B :--------------------------|-----------------------|
 G :--------------------------|-----------------------|
 D :--------------------------|-----------------------|
 A :1-1-1-1---------3-3-3-5--5|5----------------------|
 E :--------1-1-1-1-----------|--5-5-5-5-5-5-5-5------|

 


 


 [Riff 4 - Solo] 


 

 
 E :-------------------|---------------------------------|
 B :-------------------|----19-19-19-19-18-18-18-18-13---|
 G :-------------------|---------------------------------|
 D :-------------------|---------------------------------|
 A :----5-4----5-7---10|---------------------------------|
 E :5------------------|---------------------------------|
 E :--------------------------16--16-16|
 B :19-19-19-19-18-18-18-18------------|
 G :-----------------------------------|
 D :-----------------------------------|
 A :-----------------------------------|
 E :-----------------------------------|
 E :16-18-18-18-18-17-------------------------|-------------------------|
 B :------------------18--13-13-13-13---------|-------------------------|
 G :----------------------------------15-15-15|15-----------------------|
 D :------------------------------------------|---14-14-14-14-----------|
 A :------------------------------------------|-------------------------|
 E :------------------------------------------|-------------------------|

 


 


 [Riff 5 - Last cborus (Let's not find tbe weakness...)] 


 Comes directly after the solo


 

 
 E :-----------------------------|-----------------------|
 B :-----------------------------|-----------------------|
 G :3-3-3-3---------5-5-5-7-7-7-7|-----------------------|
 D :3-3-3-3-3-3-3-3-5-5-5-7-7-7-7|7-7-7-7-7-7-7-7--------|
 A :1-1-1-1-3-3-3-3-3-3-3-5-5-5-5|7-7-7-7-7-7-7-7--------|
 E :--------1-1-1-1--------------|5-5-5-5-5-5-5-5--------|

 


 


 [Riff 6A - End (Wbat good would it do?)] 


 

 
 E :-----------------------------|
 B :-----------------------------|
 G :3-3-3-3---------5-5-5-7-7-7-7|
 D :3-3-3-3-3-3-3-3-5-5-5-7-7-7-7|
 A :1-1-1-1-3-3-3-3-3-3-3-5-5-5-5|
 E :--------1-1-1-1--------------|

 


 


 [Riff 6B - End] 


 

 
 E :----------------|
 B :----------------|
 G :3-------2-------|
 D :3---3---2-------|
 A :1---3---0-------|
 E :----1-----------|


Important: The song above is NOT stored on the Chordie server. The original song is hosted at www.guitaretab.com. Chordie works as a search engine and provides on-the-fly formatting. Chordie does not index songs against artists'/composers' will. To remove this song please click here.

This song is displayed as text-only. Transposing and tuning is only available for chordpro-songs.
Rate #2 of 6 versions

Jango Player

Login - add to songbook

SHARE PAGE  




You need to log in to post comments