Guitar Tabs, Chords and Lyrics
Update 25:10. 13:00. Site is back up running again. Songbooks are recovered. Woring on getting search back up..


Mit keinem andern  Helene Fischer

"Mit keinem Andern" - Helene Fischer
 
 ------------------------------------

[Ab]Ich komm nach [Eb]Haus, es ist schon [Db]Mitter[Ab]nacht
Und wie [Cm]jedes Mal - liegst Du noch [Eb]wach
[Ab]Du willst b[Eb]estimmt noch was Verr[Db]ücktes[Ab] tun
Und ich sag o[Cm].k. - zieh mich nur kurz [Eb]um
Zwischenspiel
[Fm] [Bbm] [Db] [Eb] [Fm]  
 
 E|-----------------------------------|
 H|-----------------------------------|
 G|-------------------------------0---|
 D|-3-1--------------------1-3-1----3-|
 A|-----3---1---1--------4------------|
 E|-----------4----4-1----------------|

[Fm]Seit Du durch Zufall in mein Leben kamst, [Csus2]geht es bei mir rund
[Fm]Dass ich jetzt manchmal schon bis mittags schlaf, [Csus2]da bist Du der Grund
[Db] [Eb] [Fm] [Db] 
[Eb]Ich bin reif[Ab] für ein Jahr Inselleben - Ganz weit weg von hier
Doc[Db]h in G[Eb]edanken w[Fm]är ich nur bei[Eb] Dir
Chorus:
[Ab]In zerrissnen Jeans um die Häuser ziehn - das kann ich mit keinem[Eb] Andern
Nachts mit Partylärm alle Nachbarn störn - das kann ich mit keine[Ab]m Andern
[Fm] [Db] [Ab] 
Auf[Eb] der Autobahn mit dreihundert fahrn - so was kann ich nur mit Dir
Mich t[Ab]otal verli[Gm]ern, nichts mehr [Fm]kontrolli[Eb]ern
Das [Db]kann ich mit [Eb]keinem [Ab]Andern
Zwischenspiel
[Fm] [Bbm] [Db] [Eb] [Fm]  
 
 E|-----------------------------------|
 H|-----------------------------------|
 G|-------------------------------0---|
 D|-3-1--------------------1-3-1----3-|
 A|-----3---1---1--------4------------|
 E|-----------4----4-1----------------|

[Fm] [Bbm] [Db] [Eb] [Fm]  
 
 E|-------------------------------------------------|
 H|-------------------------------------------------|
 G|------------------------------------0-3----1-0---|
 D|--1---3-1--------------------1-3-1-------------3-|
 A|-3-3------3---1---1--------4---------------------|
 E|----------------4----4-1-------------------------|

[Fm]Du bist in vielem noch ein gro?es Kind,[Csus2] ganz genau wie ich
[Fm]Und dass der Tag für Dich erst nachts beginnt, ja[Csus2], das reizt auch mich
[Db] [Eb] [Fm] [Db] 
[Eb]Ich bräu[Ab]chte mal ne kleine Pause, mein Akku ist fast leer
doch i[Db]ch hab [Eb]immer wieder [Fm]Lust auf [Eb]mehr
1xChorus
Bridge:
[Fm]So - wie ich bei [Cm]Dir nur bin
[Fm]So - kriegt das kein [Cm]Andrer hin
[Db]So - am Limit [Ab]leb ich nur mit [Eb]Dir
Chorus:
[Ab]In zerrissnen Jeans um die Häuser ziehn - das kann ich mit keinem[Eb] Andern
Nachts mit Partylärm alle Nachbarn störn - das kann ich mit keine[Ab]m Andern
[Fm] [Db] [Ab] 
Auf[Eb] der Autobahn mit dreihundert fahrn - so was kann ich nur mit Dir
Mich t[Ab]otal verli[Gm]ern, nichts mehr [Fm]kontrolli[Eb]ern
Das [Db]kann ich mit [Eb]keinem [Ab]Andern
Mich t[Ab]otal verli[Gm]ern, nichts mehr [Fm]kontrolli[Eb]ern
Das [Db]kann ich mit [Eb]keinem [Ab]Andern

Important: The song above is NOT stored on the Chordie server. The original song is hosted at www.guitaretab.com. Chordie works as a search engine and provides on-the-fly formatting. Chordie does not index songs against artists'/composers' will. To remove this song please click here.

Text color:
Chord color:
Chord grids: 
Font size:    
Page size: 

Ab Bbm Cm Csus2 Db Eb Fm Gm
Rate #0 of 2 versions

Login - add to songbook

SHARE PAGE  




You need to log in to post comments