Guitar Tabs, Chords and Lyrics
Server problems seems to be fixed. Chordie has been experiencing problems with songs disappearing. These issues now seems to be fixed, but still verifying the fix. If you find anything strange, please email admin@chordie.com.


We Burn  Helloween

As recorded by Helloween
(From the 1995 Album THE TIME OF THE OATH)
Transcribed by Asmogriff (ComfortablyDumb)
Words and Music by Andi Deris
Arranged by Helloween
Gtr I (E A D G B E) - 'Dist 1'
Gtr II (E A D G B E) - 'Dist 2'
Gtr III (E A D G B E) - 'Dist 3'
Intro
Q=145
[4/4] Gtr I[2/4]
Wx7 W
 
 |------------|------|
 |------------|------|
 |------------|------|
 |------------|------|
 |------------|------|
 |------------|------|

[4/4] S S S S S S S S S S S S S S S S
 
 |---------------------------------------|
 |-20p0-0-19p0-0-20p0-0-19p0-0-20p0-19p0-|
 |---------------------------------------|
 |---------------------------------------|
 |---------------------------------------|
 |---------------------------------------|

|
| Gtr II
| S S S S S S S S S S S S S S S S
 
 |---------------------------------------|
 |-17p0-0-15p0-0-17p0-0-15p0-0-17p0-15p0-|
 |---------------------------------------|
 |---------------------------------------|
 |---------------------------------------|
 |---------------------------------------|

|
| Gtr III
| S S S S S S S S S S S S S S S S
 
 |---------------------------------------|
 |-12p8-8-10p8-8-12p8-8-10p8-8-12p8-10p8-|
 |---------------------------------------|
 |---------------------------------------|
 |---------------------------------------|
 |---------------------------------------|

S S S S S S S S S S S S S S S S
 
 |---------------------------------------|
 |-20p0-0-19p0-0-20p0-0-19p0-0-20p0-19p0-|
 |---------------------------------------|
 |---------------------------------------|
 |---------------------------------------|
 |---------------------------------------|

|
| S S S S S S S S S S S S S S S S
 
 |---------------------------------------|
 |-17p0-0-15p0-0-17p0-0-15p0-0-17p0-15p0-|
 |---------------------------------------|
 |---------------------------------------|
 |---------------------------------------|
 |---------------------------------------|

|
| S S S S S S S S S S S S S S S S
 
 |---------------------------------------|
 |-12p8-8-10p8-8-12p8-8-10p8-8-12p8-10p8-|
 |---------------------------------------|
 |---------------------------------------|
 |---------------------------------------|
 |---------------------------------------|

[A5] S S S S S S S S S S S S S S S S
 
 ||-------------------------------------------|
 ||o------------------------------------------|
 ||-------------------------------------------|
 ||-------------------------------------------|
 ||o-12-12-0-10-0-0-12-12-0-10-0-0-12-12-10-0-|
 ||-------------------------------------------|

|
| W
 
 ||-------------------------------------------|
 ||o------------------------------------------|
 ||-------------------------------------------|
 ||---2---------------------------------------|
 ||o--0---------------------------------------|
 ||-------------------------------------------|

~~
S S S S S S S S e e E S S
 
 |--------------------------------------|
 |--------------------------------------|
 |--------------------------------------|
 |-----------------------10-13-12-------|
 |-12--12-0-10-0-12-12-0----------13-12-|
 |--------------------------------------|

|
| +W
 
 |--------------------------------------|
 |--------------------------------------|
 |--------------------------------------|
 |-(2)----------------------------------|
 |-(0)----------------------------------|
 |--------------------------------------|

[F5] [D5] ~~
S S S S S S S S S S S S S S S S S S S S S S S S e e Q
 
 |------------------------------------------|---------------------------------||
 |------------------------------------------|--------------------------------o||
 |------------------------------------------|---------------------------------||
 |------------------------------------------|----------------------10-13-12---||
 |-12-12-0-10-0-0-12-12-0-10-0-0-12-12-10-0-|-12-12-0-10-0-12-12-0-----------o||
 |------------------------------------------|---------------------------------||

|
| W W
 
 |------------------------------------------|---------------------------------||
 |------------------------------------------|--------------------------------o||
 |--5---------------------------------------|--2------------------------------||
 |--3---------------------------------------|--0------------------------------||
 |------------------------------------------|--------------------------------o||
 |------------------------------------------|---------------------------------||

Verse
$
Gtrs I, II[F5/C]
 
 PM--------------------------------------------------------------|

S S S S S S S S S S S S S S S S S S S S S S S S S S S S S S S S W
 
 ||----------------------------------|---------------------------------|------|
 ||o---------------------------------|---------------------------------|------|
 ||----------------------------------|---------------------------------|-5----|
 ||----------------------------------|-----------------2-2-2-0-0-0-----|-3----|
 ||o-0-0-3-0-0-3-0-0-3-0-0-3-0-0-0-0-|-0-0-0-0-0-0-0-0-------------3-3-|-3----|
 ||----------------------------------|---------------------------------|------|

Pre-Chorus
$$
Gtr I
PM--------|
E. S +E E +E S S S S S S W
|-----------------------------||-----------|
|----------------------------o||-----------|
|-----------------------------||-----------|
|----7-(7)-9-(9)--------------||-----------|
|----5-(5)-7-(7)-7-7-7-7-7-7-o||-5---------|
|-3---------------------------||-3---------|
|
| Gtr III
| ~
| W H H
|-----------------------------||------7----|
|----------------------------o||-----------|
|-----------------------------||-----------|
|-----------------------------||-----------|
|----------------------------o||-----------|
|-----------------------------||-----------|
W E. S +E E H
|---------------|----------------------|
|---------------|----------------------|
|---------------|----------------------|
|---------------|--5---5--(5)--5--5----|
|-7-------------|--3---3--(3)--3--3----|
|-5-------------|----------------------|
|
| ~~~~~~ ~~
| Q E E +H E. S +E E H
|------8-(8)----|-12--12-(12)-12-12----|
|---------------|----------------------|
|---------------|----------------------|
|---------------|----------------------|
|---------------|----------------------|
|---------------|----------------------|
S S S S S S S S S S S S S S S S W
|-----------------------------------|-----------|
|-----------------------------------|-----------|
|--4-4-4-4-4-4-4-4--4-4-4-4-4-4-4-4-|-----------|
|--2-2-2-2-2-2-2-2--2-2-2-2-2-2-2-2-|-----------|
|-----------------------------------|-5---------|
|-----------------------------------|-3---------|
|
| ~~~~~~~~~~~~~~~~~~~ ~
| H H H H
|-15---------------12---------------|------7----|
|-----------------------------------|-----------|
|-----------------------------------|-----------|
|-----------------------------------|-----------|
|-----------------------------------|-----------|
|-----------------------------------|-----------|
To Coda
To Coda
PM----|
W E. S +E E Q S S S S
|-----------|--------------------------|
|-----------|--------------------------|
|-----------|--------------------------|
|-----------|-5--5-(5)-5--5------------|
|-7---------|-3--3-(3)-3--3--3-3-3-3---|
|-5---------|--------------------------|
|
| ~ ~~
| H H H H
|------8----|------------12------------|
|-----------|--------------------------|
|-----------|--------------------------|
|-----------|--------------------------|
|-----------|--------------------------|
|-----------|--------------------------|
PM-----------------------------------------------------------------|
S S S S S S S S S S S S S S S S S S S S S S S S H
|------------------------------------------------|--------------------------|
|------------------------------------------------|--------------------------|
|----------------------------------------4-4-2-2-|---5---5-5-4-4-7-7-7------|
|-5--5-5--4---4------4---7--7---7--5-5-5-5-5-3-3-|---7---7-7-5-5-9-9-9-3----|
|-7--7-7--5---5------5---8--8---8--7-7-7---------|---------------------3----|
|------------------------------------------------|---------------------1----|
|
| ~~~~~~~~~~~~~~~~~~~~~~~~~
| E. S +E +E +H +H H
|------------------------------------------------|--------------------------|
|--------16-(16)b17====(16)---(16)---------------|-(16)r--------------------|
|------------------------------------------------|--------------------------|
|------------------------------------------------|---------------------3----|
|------------------------------------------------|---------------------3----|
|------------------------------------------------|---------------------1----|
Chorus
S S S S S S S S S S S S S S S S
|------------------------------------------|
|------------------------------------------|
|------------------------------------------|
|------------------------------------------|
|-12-12-0-10-0-0-12-12-0-10-0-0-12-12-10-0-|
|------------------------------------------|
|
| W
|------------------------------------------|
|------------------------------------------|
|------------------------------------------|
|--2---------------------------------------|
|--0---------------------------------------|
|------------------------------------------|
~~
S S S S S S S S e e E S S
|--------------------------------------|
|--------------------------------------|
|--------------------------------------|
|-----------------------10-13-12-------|
|-12--12-0-10-0-12-12-0----------13-12-|
|--------------------------------------|
|
| +W
|--------------------------------------|
|--------------------------------------|
|--------------------------------------|
|-(2)----------------------------------|
|-(0)----------------------------------|
|--------------------------------------|
D.S. al Coda
~~
S S S S S S S S S S S S S S S S S S S S S S S S e e Q
|------------------------------------------|--------------------------------|
|------------------------------------------|--------------------------------|
|------------------------------------------|--------------------------------|
|------------------------------------------|----------------------10-13-12--|
|-12-12-0-10-0-0-12-12-0-10-0-0-12-12-10-0-|-12-12-0-10-0-12-12-0-----------|
|------------------------------------------|--------------------------------|
|
| W H Q Q
|------------------------------------------|--------------------------------|
|------------------------------------------|--------------------------------|
|--5---------------------------------------|--2-----------------------------|
|--3---------------------------------------|--0--------------------5--------|
|------------------------------------------|-----------------------3-----5--|
|------------------------------------------|-----------------------------3--|
&
PM----------------------------------------------------|
S S S S S S S S S S S S S S S S S S S S S S S S H
|------------------------------------|-------------------------|
|------------------------------------|-------------------------|
|----------------------------4-4-2-2-|---5--5-5-4-4-7-7-7------|
|-5-5--5-4--4--4-7-7-7-5-5-5-5-5-3-3-|---7--7-7-5-5-9-9-9-3----|
|-7-7--7-5--5--5-8-8-8-7-7-7---------|--------------------3----|
|------------------------------------|--------------------1----|
|
| ~~~~~~~~~~~~~~~~~~~~~~~~~~~~~~~~
| E E H. +H H
|-----12---12------------------------|-(12)--------------------|
|------------------------------------|-------------------------|
|------------------------------------|-------------------------|
|------------------------------------|--------------------3----|
|------------------------------------|--------------------3----|
|------------------------------------|--------------------1----|
Chorus
S S S S S S S S S S S S S S S S
||-------------------------------------------|
||o------------------------------------------|
||-------------------------------------------|
||-------------------------------------------|
||o-12-12-0-10-0-0-12-12-0-10-0-0-12-12-10-0-|
||-------------------------------------------|
|
| W
||-------------------------------------------|
||o------------------------------------------|
||-------------------------------------------|
||---2---------------------------------------|
||o--0---------------------------------------|
||-------------------------------------------|
~~
S S S S S S S S e e E S S
|---------------------------------------|
|---------------------------------------|
|---------------------------------------|
|-----------------------10-13-12--------|
|-12--12-0-10-0-12-12-0----------13-12--|
|---------------------------------------|
|
| +W
|---------------------------------------|
|---------------------------------------|
|---------------------------------------|
|-(2)-----------------------------------|
|-(0)-----------------------------------|
|---------------------------------------|
~~
S S S S S S S S S S S S S S S S S S S S S S S S e e Q
|------------------------------------------|---------------------------------||
|------------------------------------------|--------------------------------o||
|------------------------------------------|---------------------------------||
|------------------------------------------|----------------------10-13-12---||
|-12-12-0-10-0-0-12-12-0-10-0-0-12-12-10-0-|-12-12-0-10-0-12-12-0-----------o||
|------------------------------------------|---------------------------------||
|
| W H Q Q
|------------------------------------------|---------------------------------||
|------------------------------------------|--------------------------------o||
|--5---------------------------------------|--2------------------------------||
|--3---------------------------------------|--0--------------------5---------||
|------------------------------------------|-----------------------3-----5--o||
|------------------------------------------|-----------------------------3---||
Guitar Solo
E S S S S S S S S S S S S S S
|-12b14==12--12-12-12-12-12-12--12-12-12-12-12-12-12r-|
|-----------------------------------------------------|
|-----------------------------------------------------|
|-----------------------------------------------------|
|-----------------------------------------------------|
|-----------------------------------------------------|
|
| E Q. +H
|-----------------------------------------------------|
|-----------------------------------------------------|
|-----------------------------------------------------|
|---------4-----------------(4)-----------------------|
|---------2-----------------(2)-----------------------|
|-----------------------------------------------------|
~~~~~ ~~ ~~~~~
H S S S S S S S S S S E S S S S S E S S S E
|-12b14----7h10p7----10---------|------------------------------------|
|-----------------10----10-9h10-|-9-7-------------7----7-10p7--------|
|-------------------------------|-----9p7---9p7---9b11--------9b11===|
|-------------------------------|---------9-----9--------------------|
|-------------------------------|------------------------------------|
|-------------------------------|------------------------------------|
|
| +H E E E E W
|-------------------------------|------------------------------------|
|-------------------------------|------------------------------------|
|-------------------------------|------------------------------------|
|-(4)-----------7----------2----|-4----------------------------------|
|-(2)-----------5----------0----|-2----------------------------------|
|-------------------------------|------------------------------------|
~~
S +S S S S S S S H
|-------------------------------|
|-------------------------------|
|--9r=(9)p7------------11-------|
|-----------9-7h9-7h9/----------|
|-------------------------------|
|-------------------------------|
|
| +H E E E E
|-------------------------------|
|-------------------------------|
|-------------------------------|
|-(4)-------------------2-7---2-|
|-(2)-------------------0-5---0-|
|-------------------------------|
|------6-------| |------6-------| |-------6-------| |------6-------|
S S S S S S S S S S S S S S S S S S S S S S S S
|---------------------------------------------------------------------------|
|---------------------------------------------------------------------------|
|---------------------------------------------------------------------------|
|-16p12h14h16p12h14h16p12h14h16p12h14---------------------------------------|
|-------------------------------------16p=12h14h16p12h14h16p12h14h16p12h14--|
|---------------------------------------------------------------------------|
|
| E Q. +H
|---------------------------------------------------------------------------|
|---------------------------------------------------------------------------|
|---------------------------------------------------------------------------|
|-----------4-------------------------(4)-----------------------------------|
|-----------2-------------------------(2)-----------------------------------|
|---------------------------------------------------------------------------|
|-------6-------| |------6-------| |------6-------| |------6-------|
S S S S S S S S S S S S S S S S S S S S S S S S
|--------------------------------------------------------------------------|
|--------------------------------------------------------------------------|
|--------------------------------------------------------------------------|
|--------------------------------------------------------------------------|
|--------------------------------------------------------------------------|
|-17p=12h14h17p12h14h17p12h14h17p12h14-14p10h12h14p10h12h14p10h12h14p10h12-|
|
| +H E Q.
|--------------------------------------------------------------------------|
|--------------------------------------------------------------------------|
|--------------------------------------------------------------------------|
|-(4)--------------------------------------------7-------------------------|
|-(2)--------------------------------------------5-------------------------|
|--------------------------------------------------------------------------|
Interlude
S S S S S S S S S S S S S S S S
||---------------------------------------------|
||o--12p====0-0-10p0-0-13p0-0-12p0-0-10p0-12p0-|
||---------------------------------------------|
||---------------------------------------------|
||o--------------------------------------------|
||---------------------------------------------|
|
| Gtr II
| S S S S S S S S S S S S S S S S
||---------------------------------------------|
||o---8p====0-0--7p0-0-10p0-0--8p0-0--7p0--8p0-|
||---------------------------------------------|
||---------------------------------------------|
||o--------------------------------------------|
||---------------------------------------------|
|
| Gtr III
| ~~~~~~~
| W
||---------------------------------------------|
||o-[15]b17------------------------------------|
||---------------------------------------------|
||----9----------------------------------------|
||o---7----------------------------------------|
||---------------------------------------------|
W
S S S S S S S S S S S S S S S S
|-----------------------------------|
|-8p0-0-7p0-0-10p0-0-8p0-0-7p0-8p0--|
|-----------------------------------|
|-----------------------------------|
|-----------------------------------|
|-----------------------------------|
|
| S S S S S S S S S S S S S S S S
|-----------------------------------|
|-5p0-0-3p0-0--7p0-0-5p0-0-3p0-5p0--|
|-----------------------------------|
|-----------------------------------|
|-----------------------------------|
|-----------------------------------|
|
| H H
|-----------------------------------|
|-----------------------------------|
|-----------------------------------|
|-7----------------5----------------|
|-5----------------3----------------|
|-----------------------------------|
S S S S S S S S S S S S S S S S S S S S S S S S S S S S S S S S
|---------------------------------|------------------------------------||
|-7p0-0-3p0-0-7p0-5p0-0-0-5p0-0-0-|-7p0-0-3p0-0-7p0-8p0-8p0-10p0-12p0-o||
|---------------------------------|------------------------------------||
|---------------------------------|------------------------------------||
|---------------------------------|-----------------------------------o||
|---------------------------------|------------------------------------||
|
| S S S S S S S S S S S S S S S S S S S S S S S S S S S S e E
|---------------------------------|-------------------------10---12----||
|-3p0-0-7p0-0-3p0-5p0-0-0-5p0-0-0-|-3-0-0-7-0-0-3-0-5-0-0-0-----------o||
|---------------------------------|------------------------------------||
|---------------------------------|------------------------------------||
|---------------------------------|-----------------------------------o||
|---------------------------------|------------------------------------||
|
| H H H H
|---------------------------------|------------------------------------||
|---------------------------------|-----------------------------------o||
|---------------------------------|------------------------------------||
|-7---------------9---------------|-7---------------5------------------||
|-5---------------7---------------|-5---------------3-----------------o||
|---------------------------------|------------------------------------||
Guitar Solo 2
S a E. +Q +S S E Q
|-----------------------------------------|
|-----------15-----(15)-------------------|
|---14b16==(14)----(14)r=(14)p12-14-[14]--|
|-----------------------------------------|
|-----------------------------------------|
|-----------------------------------------|
|
| E Q. +H
|-----------------------------------------|
|-----------------------------------------|
|-----------------------------------------|
|---------------2---------(2)-------------|
|---------------0---------(0)-------------|
|-----------------------------------------|
+E S S S S S S S S S S E. S E S S +S S E +Q +Q
|---------------------------------------------------|-----------------------------------|
|---------------------------------------------------|-----------------------------------|
|-(14)-14b15==14-14-14-14-14-14--14r-14-14-14p===12-|----xS14-(14)-14-14-(14)--(14)S====|
|---------------------------------------------------|-14--------------------------------|
|---------------------------------------------------|-----------------------------------|
|---------------------------------------------------|-----------------------------------|
|
| +H E. S +E E E Q. +H
|---------------------------------------------------|-----------------------------------|
|---------------------------------------------------|-----------------------------------|
|---------------------------------------------------|-----------------------------------|
|--(2)-----------------------------------5-(5)------|----2----------------(2)-----------|
|--(0)------------------------5----------3-(3)-5----|----0----------------(0)-----------|
|-----------------------------3----------------3----|-----------------------------------|
~~~
E. S S S S S Q. S +S +H.. +E
|----------------------------------------------|----------------------|
|--------------17-20b22==20--------20b24==(20)r|=(20)r===========(20)-|
|--x--16-17-19---------------------------------|----------------------|
|----------------------------------------------|----------------------|
|----------------------------------------------|----------------------|
|----------------------------------------------|----------------------|
|
| +H E. S +E E E Q. +H
|----------------------------------------------|----------------------|
|----------------------------------------------|----------------------|
|----------------------------------------------|----------------------|
|-(2)------------------------5-(5)-------------|------2----(2)--------|
|-(0)---------------------5--3-(3)--5----------|------0----(0)--------|
|-------------------------3---------3----------|----------------------|
D.S.S. al Dbl. Coda
|--3--| |-----5-----|
S S S S S S S S S S S S +E +S E.
|-----------------------------------------------------|
|-17--18-20-18-17-------------------------------------|
|-----------------19-17-16-19-19-17S9b13==(9)r(9)S7\--|
|-----------------------------------------------------|
|-----------------------------------------------------|
|-----------------------------------------------------|
|
| +H E Q.
|-----------------------------------------------------|
|-----------------------------------------------------|
|-----------------------------------------------------|
|-(2)--------------------------------------5----------|
|-(0)--------------------------------------3----------|
|-----------------------------------------------------|
&&
PM----------------------------------------------------------|
S S S S S S S S S S S S S S S S S S S S S S S S H
|-----------------------------------------|--------------------------|
|-----------------------------------------|--------------------------|
|---------------------------------4-4-2-2-|---5---5-5-4-4-7-7-7------|
|-5-5--5-----4-4-4-7-7---7--5-5-5-5-5-3-3-|---7---7-7-5-5-9-9-9-3----|
|-7-7--7-----5-5-5-8-8---8--7-7-7---------|---------------------3----|
|-----------------------------------------|---------------------1----|
|
| ~~~~~~~~~~~~~~~~~~~~~~~~~
| E Q. +H +H H
|-----------------------------------------|--------------------------|
|-----15b17============(15)---------------|-(15)r--------------------|
|-----------------------------------------|--------------------------|
|-----------------------------------------|--------------------------|
|-----------------------------------------|---------------------3----|
|-----------------------------------------|---------------------1----|
Chorus
S S S S S S S S S S S S S S S S
||-------------------------------------------|
||o------------------------------------------|
||-------------------------------------------|
||-------------------------------------------|
||o-12-12-0-10-0-0-12-12-0-10-0-0-12-12-10-0-|
||-------------------------------------------|
|
| W
||-------------------------------------------|
||o------------------------------------------|
||-------------------------------------------|
||---2---------------------------------------|
||o--0---------------------------------------|
||-------------------------------------------|
~~
S S S S S S S S e e E S S
|---------------------------------------|
|---------------------------------------|
|---------------------------------------|
|-----------------------10-13-12--------|
|-12--12-0-10-0-12-12-0----------13-12--|
|---------------------------------------|
|
| +W
|---------------------------------------|
|---------------------------------------|
|---------------------------------------|
|-(2)-----------------------------------|
|-(0)-----------------------------------|
|---------------------------------------|
~~
S S S S S S S S S S S S S S S S S S S S S S S S e e Q 4x
|------------------------------------------|---------------------------------||
|------------------------------------------|--------------------------------o||
|------------------------------------------|---------------------------------||
|------------------------------------------|----------------------10-13-12---||
|-12-12-0-10-0-0-12-12-0-10-0-0-12-12-10-0-|-12-12-0-10-0-12-12-0-----------o||
|------------------------------------------|---------------------------------||
|
| W H Q Q 4x
|------------------------------------------|---------------------------------||
|------------------------------------------|--------------------------------o||
|--5---------------------------------------|---------------------------------||
|--3---------------------------------------|--7--------------------5---------||
|------------------------------------------|--5--------------------3-----5--o||
|------------------------------------------|-----------------------------3---||
Duration Legend
---------------
W - whole; H - half; Q - quarter; E - 8th; S - 16th; T - 32nd; X - 64th; a - acciaccatura
+ - note tied to previous; . - note dotted; .. - note double dotted
Uncapitalized letters represent notes that are staccato (1/2 duration)
Irregular groupings are notated above the duration line
Duration letters will always appear directly above the note/fret number it represents the
duration for. Duration letters with no fret number below them represent rests. Multi-
bar rests are notated in the form Wxn, where n is the number of bars to rest for. Low
melody durations appear below the staff
Tablature Legend
----------------
h - hammer-on
p - pull-off
b - bend
pb - pre-bend
r - bend release (if no number after the r, then release immediately)
/\ - slide into or out of (from/to "nowhere")
s - legato slide
S - shift slide
- natural harmonic
[n] - artificial harmonic
n(n) - tapped harmonic
~ - vibrato
tr - trill
T - tap
TP - trem. picking
PM - palm muting
\n/ - tremolo bar dip; n = amount to dip
\n - tremolo bar down
n/ - tremolo bar up
/n\ - tremolo bar inverted dip
= - hold bend; also acts as connecting device for hammers/pulls
- volume swell (louder/softer)
x - on rhythm slash represents muted slash
o - on rhythm slash represents single note slash
Misc Legend
-----------
| - bar
|| - double bar
||o - repeat start
o|| - repeat end
*| - double bar (ending)
: - bar (freetime)
$ - Segno
& - Coda
Tempo markers - = BPM(8/16=s8/s16), where s8 = swing 8ths, s16 = swing 16ths

Important: The song above is NOT stored on the Chordie server. The original song is hosted at www.guitaretab.com. Chordie works as a search engine and provides on-the-fly formatting. Chordie does not index songs against artists'/composers' will. To remove this song please click here.

Text color:
Chord color:
Chord grids: 
Font size:    
Page size: 

A5 D5 F5 F5/C
Rate #1 of 3 versions

Jango Player

Login - add to songbook

SHARE PAGE  




You need to log in to post comments