Guitar Tabs, Chords and Lyrics
Server problems seems to be fixed. Chordie has been experiencing problems with songs disappearing. These issues now seems to be fixed, but still verifying the fix. If you find anything strange, please email admin@chordie.com.


I'm Alive  Helloween

I'M ALIVE
As recorded by Helloween
(From the 1987 Album KEEPER OF THE SEVEN KEYS PT.1)
Transcribed by Ivan - (peekaboo104@hotmail.com)
Words and Music by K.Hansen
[F#5]2 4 4 x x x
[D5]x 5 7 7 x x
[E5]x 7 9 9 x x
[C#5]x 4 6 6 x x
E5(type 2)
0 2 2 x x x
F#5(type 2)
x 9 11 11 x x
[G5]3 5 5 x x x
[A5]x 0 2 2 x x
[B5]x 2 4 4 x x
E5(type 3)
0 7 9 9 x x
[G#5]4 6 6 x x x
[F5]1 3 3 x x x
Gtr I (E A D G B E) - 'Lead Guitar'
Gtr II (E A D G B E) - 'Rhythm Guitar'
Intro
Fast Rock Q=300
[F#5]  
[4/4] Gtr II
W +W +W +W
| | | |
[/] [/] [/] [/] 
Gtr I
Q Q Q Q Q Q Q Q Q Q Q Q Q Q Q Q
 
 |-------------|--------------|--------------|--------------|
 |-------------|--------------|--------------|--------------|
 |-------------|--------------|--------------|--------------|
 |-------------|--------------|--------------|--------------|
 |-------------|--------------|--------------|--------------|
 |-2--5--4--0--|--2--5--4--0--|--2--5--4--0--|--2--5--4--0--|

[D5]W +W [E5]W +W
| | | |
[/] [/] [/] [/] 
Q Q Q Q Q Q Q Q Q Q Q Q Q Q Q Q
 
 |-------------|--------------|-------------|---------------||
 |-------------|--------------|-------------|---------------||
 |-------------|--------------|-------------|---------------||
 |-------------|--------------|-------------|---------------||
 |-------------|--------------|----------4--|--2------------||
 |-2--5--4--0--|--2--5--4--0--|-2--5--4-----|-----5--4--0---||

[F#5]W +W +W +W
| | | |
[/] [/] [/] [/] 
Q Q Q Q Q Q Q Q Q Q Q Q Q Q Q Q
 
 |-------------|--------------|--------------|---------------|
 |-------------|--------------|--------------|---------------|
 |-------------|--------------|--------------|---------------|
 |-------------|--------------|--------------|---------------|
 |-0--4--2--4--|--0--4--2--4--|--0--4--2--4--|--0--4--2--4---|
 |-2--5--4--0--|--2--5--4--0--|--2--5--4--0--|--2--5--4--0---|

Q Q Q Q Q Q Q Q Q Q Q Q Q Q Q Q
[D5]W +W [E5]W +H. Q
| | | |
[/] [/] [/] [/] 
Q Q Q Q Q Q Q Q Q Q Q Q Q Q Q Q
 
 |-------------|--------------|-------------|----------------||
 |-------------|--------------|-------------|----------------||
 |-------------|--------------|-------------|----------------||
 |-------------|--------------|----------2--|--0-------------||
 |-0--4--2--4--|--0--4--2--4--|-0--4--2--4--|--2---4--2--4---||
 |-2--5--4--0--|--2--5--4--0--|-2--5--4-----|------5--4--0---||

Q Q Q Q Q Q Q Q Q Q Q Q Q Q Q Q
1st Verse
N.C.(F#) E5
Gtrs I, II
 
 PM--------| PM--------| PM--------|

E E E E E E E E E E E E E E E E E E E E E E E E H. +Q
 
 |-----------------|-----------------|-----------------|----------------|
 |-----------------|-----------------|-----------------|----------------|
 |-----------------|-----------------|-----------------|-9-------(9)\---|
 |-----------------|-----------------|-----------------|-9-------(9)\---|
 |-----------------|-----------------|-----------------|-7-------(7)\---|
 |-0h2-2-2-2-2-2-2-|-0h2-2-2-2-2-2-2-|-0h2-2-2-2-2-2-2-|----------------|

N.C.(F#) E5
 
 PM--------| PM--------| PM--------|

E E E E E E E E E E E E E E E E E E E E E E E E W
 
 |-----------------|-----------------|-----------------|------||
 |-----------------|-----------------|-----------------|------||
 |-----------------|-----------------|-----------------|-9----||
 |-----------------|-----------------|-----------------|-9----||
 |-----------------|-----------------|-----------------|-7----||
 |-0h2-2-2-2-2-2-2-|-0h2-2-2-2-2-2-2-|-0h2-2-2-2-2-2-2-|------||

Pre-chorus
[C#5]Gtr II
W +W +W +W
| | | |
[/] [/] [/] [/] 
Gtr I
[B] [B] [B] [B] [B] [B] [B] [B]  
 
 |-----------|------------|------------|------------|
 |------5----|--3----2----|------------|------------|
 |------6----|--4---------|--4----1----|--2----4----|
 |-3---------|-------7----|--6----3----|--4----6----|
 |-4---------|------------|------------|------------|
 |-----------|------------|------------|------------|

[B] [B] [B] [B] [B] [B] [B] [B] 
[F#5]W +W +W +W
| | | |
[/] [/] [/] [/] 
~~
H H H H H H W
 
 |-----------|------------|------------|-------|
 |-2---------|------------|------------|-------|
 |------4----|--2----1----|--2----4----|-------|
 |-7----6----|--4----3----|--4----6----|--2----|
 |-----------|------------|------------|--4----|
 |-----------|------------|------------|-------|

H H H H H H W
[C#5]W +W +W +W
| | | |
[/] [/] [/] [/] 
[B] [B] [B] [B] [B] [B] [B] [B]  
 
 |-----------|------------|------------|------------|
 |------5----|--3----2----|------------|------------|
 |------6----|--4---------|--4----1----|--2----4----|
 |-3---------|-------7----|--6----3----|--4----6----|
 |-4---------|------------|------------|------------|
 |-----------|------------|------------|------------|

[B] [B] [B] [B] [B] [B] [B] [B] 
[D5]W +W [E5]W +W
| | | |
[/] [/] [/] [/] 
~~
H E E E E W H E E E E H +H
 
 |--------------|-----------|--------------|---------------||
 |--------------|-----------|--------------|---------------||
 |-6----4h6p4---|-----------|-7----6h7p6p4-|---------------||
 |-7----6h7p6-7-|--4--------|-9----7h9p7p6-|--6----(6)\----||
 |------------9-|--5--------|--------------|--7----(7)\----||
 |--------------|-----------|--------------|---------------||

H E E E E W H E E E E H +H
Chorus
[F#5]Gtrs I, II[E5] [F#5] [E5]
W +Q H Q W +Q H Q
 
 |----------|--------------|----------|---------------|
 |----------|--------------|----------|---------------|
 |----------|--------------|----------|---------------|
 |-4--------|-(4)--4----2--|-4--------|-(4)--4----2---|
 |-4--------|-(4)--4----2--|-4--------|-(4)--4----2---|
 |-2--------|-(2)--2----0--|-2--------|-(2)--2----0---|

[F#5]W +W [D5]W [C#5F#5]Q H [E5]Q
 
 |----------|------------|----------|-------------|
 |----------|------------|----------|-------------|
 |----------|------------|-7--------|-6-----------|
 |-4--------|-(4)--------|-7--------|-6--4----2---|
 |-4--------|-(4)--------|-5--------|-4--4----2---|
 |-2--------|-(2)--------|----------|----2----0---|

[F#5]W +Q H [E5]Q [F#5]W +Q H [E5]Q
 
 |----------|--------------|----------|---------------|
 |----------|--------------|----------|---------------|
 |----------|--------------|----------|---------------|
 |-4--------|-(4)--4----2--|-4--------|-(4)--4----2---|
 |-4--------|-(4)--4----2--|-4--------|-(4)--4----2---|
 |-2--------|-(2)--2----0--|-2--------|-(2)--2----0---|

[F#5] [C#5]Gtr II
W W E E E E E E E E E E E E E E E E
| | | | | | | | | | | | | | | |
[/] [/] [/] [/] [/] [/] [/] [/] [/] [/] [/] [/] [/] [/] [/] [/] 
 
 PM------------------------------|

W +W E E E E E E E E E E E E E E E E
 
 |----------|------------|-----------------|------------------|
 |----------|------------|-----------------|------------------|
 |----------|------------|-----------------|------------------|
 |-4--------|-(4)--------|-----------------|------------------|
 |-4--------|-(4)--------|-4-4-4-4-4-4-4-4-|-4-4-4-4-4-4-4-4--|
 |-2--------|-(2)--------|-----------------|------------------|

2nd Verse
C#5 B5 A5 G#5 N.C.(F#)
 
 PM--------| PM--------|

[B] [B] [B] [B] [E] [E] [E] [E] [E] [E] [E] [E] [E] [E] [E] [E] [E] [E] [E] [E]  
 
 |-----------|-----------||-----------------|------------------|
 |-----------|-----------||-----------------|------------------|
 |-6----4----|-2---------||-----------------|------------------|
 |-6----4----|-2----6----||-----------------|------------------|
 |-4----2----|-0----6----||-----------------|------------------|
 |-----------|------4----||-0h2-2-2-2-2-2-2-|-0h2-2-2-2-2-2-2--|

E5 N.C.(F#)
 
 PM--------| PM--------| PM--------|

E E E E E E E E H. +Q E E E E E E E E E E E E E E E E
 
 |-----------------|---------------|-----------------|------------------|
 |-----------------|---------------|-----------------|------------------|
 |-----------------|-9-------(9)\--|-----------------|------------------|
 |-----------------|-9-------(9)\--|-----------------|------------------|
 |-----------------|-7-------(7)\--|-----------------|------------------|
 |-0h2-2-2-2-2-2-2-|---------------|-0h2-2-2-2-2-2-2-|-0h2-2-2-2-2-2-2--|

Pre-chorus
[E5] [C#5]Gtr II
W W W +W
| |
[/] [/] 
 
 PM--------|

E E E E E E E E W H H H H
 
 |-----------------|----------||-----------|------------|
 |-----------------|----------||------5----|--3----2----|
 |-----------------|-9--------||------6----|--4---------|
 |-----------------|-9--------||-3---------|-------7----|
 |-----------------|-7--------||-4---------|------------|
 |-0h2-2-2-2-2-2-2-|----------||-----------|------------|

[B] [B] [B] [B] 
[C#5]+W +W [F#5]W +W
| | | |
[/] [/] [/] [/] 
[B] [B] [B] [B] [B] [B] [B] [B]  
 
 |------------|------------|-----------|------------|
 |------------|------------|-2---------|------------|
 |--4----1----|--2----4----|-2----4----|--2----1----|
 |--6----3----|--4----6----|------6----|--4----3----|
 |------------|------------|-----------|------------|
 |------------|------------|-----------|------------|

[B] [B] [B] [B] [B] [B] [B] [B] 
[F#5]+W +W [C#5]W +W
| | | |
[/] [/] [/] [/] 
~~
H H W H H H H
 
 |------------|-----------|-----------|------------|
 |------------|-----------|------5----|--3----2----|
 |--2----4----|-----------|------6----|--4---------|
 |--4----6----|--3--------|-3---------|-------7----|
 |------------|--4--------|-4---------|------------|
 |------------|-----------|-----------|------------|

H H W H H H H
[C#5]+W +W [D5]W +W
| | | |
[/] [/] [/] [/] 
[B] [B] [B] [B] [B] [E] [E] [E] [E] [B] [B]  
 
 |------------|------------|--------------|------------|
 |------------|------------|--------------|------------|
 |--4----1----|--2----4----|-6----4h6p4---|------------|
 |--6----3----|--4----6----|-7----6h7p6-7-|--4----4----|
 |------------|------------|------------9-|--5----5----|
 |------------|------------|--------------|------------|

[B] [B] [B] [B] [B] [E] [E] [E] [E] [B] [B] 
Chorus
[E5]W +W [F#5]W W[E5]
| |
[/] [/]  
Gtrs I, II
H E E E E W W +Q H Q
 
 |--------------|-----------||----------|---------------|
 |--------------|-----------||----------|---------------|
 |-7----6h7p6p4-|-----------||----------|---------------|
 |-9----7h9p7p6-|--6--------||-4--------|-(4)--4----2---|
 |--------------|--7--------||-4--------|-(4)--4----2---|
 |--------------|-----------||-2--------|-(2)--2----0---|

H E E E E W
[F#5]W +Q H [E5]Q [F#5]W +W
 
 |----------|--------------|----------|--------|
 |----------|--------------|----------|--------|
 |----------|--------------|----------|--------|
 |-4--------|-(4)--4----2--|-4--------|-(4)----|
 |-4--------|-(4)--4----2--|-4--------|-(4)----|
 |-2--------|-(2)--2----0--|-2--------|-(2)----|

[D5]W [C#5F#5]Q H [E5]Q [F#5]W +Q H [E5]Q
 
 |----------|------------|----------|---------------|
 |----------|------------|----------|---------------|
 |-7--------|-6----------|----------|---------------|
 |-7--------|-6--4----2--|-4--------|-(4)--4----2---|
 |-5--------|-4--4----2--|-4--------|-(4)--4----2---|
 |----------|----2----0--|-2--------|-(2)--2----0---|

[F#5]W +Q H [E5]Q [F#5]W +W
 
 |----------|--------------|----------|--------|
 |----------|--------------|----------|--------|
 |----------|--------------|----------|--------|
 |-4--------|-(4)--4----2--|-4--------|-(4)----|
 |-4--------|-(4)--4----2--|-4--------|-(4)----|
 |-2--------|-(2)--2----0--|-2--------|-(2)----|

[C#5]Gtr II[C#5] [B5] [A5] [G#5]
E E E E E E E E E E E E E E E E W W
| | | | | | | | | | | | | | | |
[/] [/] [/] [/] [/] [/] [/] [/] [/] [/] [/] [/] [/] [/] [/] [/]  
 
 PM------------------------------|

[E] [E] [E] [E] [E] [E] [E] [E] [E] [E] [E] [E] [E] [E] [E] [E] [B] [B] [B] [B]  
 
 |-----------------|-----------------|-----------|-----------||
 |-----------------|-----------------|-----------|-----------||
 |-----------------|-----------------|-6----4----|-2---------||
 |-----------------|-----------------|-6----4----|-2----6----||
 |-4-4-4-4-4-4-4-4-|-4-4-4-4-4-4-4-4-|-4----2----|-0----6----||
 |-----------------|-----------------|-----------|------4----||

1st guitar solo
[F#]Gtr II
[E]| [E]| [E]| [E]| [E]| [E]| [E]| [E]| [E]| [E]| [E]| [E]| [E]| [E]| [E]| [E]|
o / / / / / / / / / / / / / / /
Gtr I
[B] [B] [B] [B]  
 
 |-------------------|------------------|
 |-------------------|-9-------10-------|
 |-11-------11-------|------------------|
 |-------------------|------------------|
 |-------------------|------------------|
 |-------------------|------------------|

[E]| [E]| [E]| [E]| [E]| [E]| [E]| [E]| [E]| [E]| [E]| [E]| [E]| [E]| [E]| [E]|
[/] [/] [/] [/] [/] [/] [/] [/] [/] [/] [/] [/] [/] [/] [/] [/] 
~~
[a] [+B] [B] [B] [B]  
 
 |---------------------------|----------------------|
 |-12b14-(12)-------12-------|-10-------9tr10-------|
 |---------------------------|----------------------|
 |---------------------------|----------------------|
 |---------------------------|----------------------|
 |---------------------------|----------------------|

[C#]  
[E]| [E]| [E]| [E]| [E]| [E]| [E]| [E]| [E]| [E]| [E]| [E]| [E]| [E]| [E]| [E]|
o / / / / / / / / / / / / / / /
[B] [B] [B] [B]  
 
 |-------------------|------------------|
 |-------------------|----------9-------|
 |-10-------10-------|-11---------------|
 |-------------------|------------------|
 |-------------------|------------------|
 |-------------------|------------------|

[E]| [E]| [E]| [E]| [E]| [E]| [E]| [E]| [E]| [E]| [E]| [E]| [E]| [E]| [E]| [E]|
[/] [/] [/] [/] [/] [/] [/] [/] [/] [/] [/] [/] [/] [/] [/] [/] 
W H H
 
 |-------------------|-----------------------|
 |-[9]---------------|-([9])-----------------|
 |-------------------|-----------------------|
 |-------------------|---xS========x\--------|
 |-------------------|---xS========x\--------|
 |-------------------|-----------------------|

[D5]W +W [E5]W +W
| | | |
[/] [/] [/] [/] 
 
 PM--------------------------------------------------------------------|

[E] [E] [E] [E] [E] [E] [E] [E] [E] [E] [E] [E] [E] [E] [E] [E] [E] [E] [E] [E] [E] [E] [E] [E] [E] [E] [E] [E] [E] [E] [E] [E]  
 
 |-----------------|------------------|-----------------|-------------------|
 |-----7-----------|------------------|-----------------|-------------------|
 |-------7-----7-7-|------7-----------|-----------------|----------------9--|
 |-7-7-----7-7-----|--7-7---9-7-7-----|-9-7-6-6-9---7---|--9-9-6-9-6-6-9----|
 |-----------------|--------------7-7-|---------------7-|--------7----------|
 |-----------------|------------------|-----------------|-------------------|

F#5(type 2) E5
W +W W +W
| | | |
[/] [/] [/] [/] 
 
 PM-------------------------------|

E E E E E E E E E E E E E E E E W +W
 
 |-----------------|------------------|----------|--------|
 |-----------------|------------------|----------|--------|
 |-6-------6-------|--6-------6-------|-9--------|-(9)----|
 |---7---7---7---7-|----7---7---7---7-|-9--------|-(9)----|
 |-----9-------9---|------9-------9---|-7--------|-(7)----|
 |-----------------|------------------|----------|--------|

[G5]W +W [A5]W +W
| | | |
[/] [/] [/] [/] 
 
 PM--------------------------------------------------------------------|

[E] [E] [E] [E] [E] [E] [E] [E] [E] [E] [E] [E] [E] [E] [E] [E] [E] [E] [E] [E] [E] [E] [E] [E] [E] [E] [E] [E] [E] [E] [E] [E]  
 
 |-----------------|------------------|-----------------|-------------------|
 |-3-------3-------|--3-------3-------|-5-------5-------|--5-------5--------|
 |---4---4---4---4-|----4---4---4---4-|---6---6---6---6-|----6---6---6---6--|
 |-----5-------5---|------5-------5---|-----7-------7---|------7-------7----|
 |-----------------|------------------|-----------------|-------------------|
 |-----------------|------------------|-----------------|-------------------|

B5 E5(type 3)
W +W W +W
| | | |
[/] [/] [/] [/] 
\3.5
 
 PM-------------------------------| ~~~~~~~~~~~~~~~

E E E E E E E E E E E E E E E E W +H +H
 
 |-----------------|------------------|-7--------|-(7)----(7)------||
 |-7-------7-------|--7-------7-------|----------|-----------------||
 |---7---7---7---7-|----7---7---7---7-|----------|-----------------||
 |-----9-------9---|------9-------9---|----------|-----------------||
 |-----------------|------------------|----------|-----------------||
 |-----------------|------------------|----------|-----------------||

Interlude
N.C.
[E] [E] [E] [E] [E] [E] [E] [E] [E] [E] [E] [E] [E] [E] [E] [E]  
 
 |-------------------------|-14-14-14-14-14-12-------|
 |-12-12-12-12-12-14-15-12-|-------------------15-12-|
 |-------------------------|-------------------------|
 |-------------------------|-------------------------|
 |-------------------------|-------------------------|
 |-------------------------|-------------------------|

|
| Gtr II
| E E E E E E E E E E E E E E E E
 
 |-------------------------|-------------------------|
 |-------------------------|-15-15-15-15-15-14-12----|
 |-12-12-12-12-12-14-16-12-|----------------------14-|
 |-------------------------|-------------------------|
 |-------------------------|-------------------------|
 |-------------------------|-------------------------|

[E] [E] [E] [E] [E] [E] [E] [E] [E] [E] [E] [E] [E] [E] [E] [E]  
 
 |-------------------------|--------------------------|
 |----------------12-14----|--------------------------|
 |-15-15-15-15-15-------15-|-12-12-11-11--------------|
 |-------------------------|-------------14-14-11-11--|
 |-------------------------|--------------------------|
 |-------------------------|--------------------------|

|
| E E E E E E E E E E E E E E E E
 
 |-------------------------|--------------------------|
 |-------------------------|--------------------------|
 |-11-11-11-11-11-12-14-11-|--------------------------|
 |-------------------------|-14-14-12-12-11-11--------|
 |-------------------------|-------------------13-13--|
 |-------------------------|--------------------------|

[E] [E] [E] [E] [E] [E] [E] [E] [E] [E] [E] [E] [E] [E] [E] [E]  
 
 |-------------------------|-14-14-14-14-14-12-------|
 |-12-12-12-12-12-14-15-12-|-------------------15-12-|
 |-------------------------|-------------------------|
 |-------------------------|-------------------------|
 |-------------------------|-------------------------|
 |-------------------------|-------------------------|

|
| E E E E E E E E E E E E E E E E
 
 |-------------------------|-------------------------|
 |-------------------------|-15-15-15-15-15-14-12----|
 |-12-12-12-12-12-14-16-12-|----------------------14-|
 |-------------------------|-------------------------|
 |-------------------------|-------------------------|
 |-------------------------|-------------------------|

~~
[E] [E] [E] [E] [E] [E] [E] [E] [E] [E] [E] [E] [B]  
 
 |-------------------------|-----------------|
 |----------------12-14-12-|------14---12----|
 |-15-15-15-15-15----------|-15--------------|
 |-------------------------|-----------------|
 |-------------------------|-----------------|
 |-------------------------|-----------------|

|
| ~~
| E E E E E E E E E E E E H
 
 |-------------------------|-----------------|
 |-------------------------|-----------15----|
 |-11-11-11-11-11-12-14-12-|-11---15---------|
 |-------------------------|-----------------|
 |-------------------------|-----------------|
 |-------------------------|-----------------|

[E] [E] [E] [E] [E] [E] [E] [E] [E] [E] [E] [E] [E] [E] [E] [E]  
 
 |-------------------------|-14-14-14-14-14-12-------|
 |-12-12-12-12-12-14-15-12-|-------------------15-12-|
 |-------------------------|-------------------------|
 |-------------------------|-------------------------|
 |-------------------------|-------------------------|
 |-------------------------|-------------------------|

|
| E E E E E E E E E E E E E E E E
 
 |-------------------------|-------------------------|
 |-------------------------|-15-15-15-15-15-14-12----|
 |-12-12-12-12-12-14-16-12-|----------------------14-|
 |-------------------------|-------------------------|
 |-------------------------|-------------------------|
 |-------------------------|-------------------------|

[E] [E] [E] [E] [E] [E] [E] [E] [E] [E] [E] [E] [E] [E] [E] [E]  
 
 |-------------------------|--------------------------|
 |----------------12-14----|--------------------------|
 |-15-15-15-15-15-------15-|-12-12-11-11--------------|
 |-------------------------|-------------14-14-11-11--|
 |-------------------------|--------------------------|
 |-------------------------|--------------------------|

|
| E E E E E E E E E E E E E E E E
 
 |-------------------------|--------------------------|
 |-------------------------|--------------------------|
 |-11-11-11-11-11-12-14-11-|--------------------------|
 |-------------------------|-14-14-12-12-11-11--------|
 |-------------------------|-------------------13-13--|
 |-------------------------|--------------------------|

[E] [E] [E] [E] [E] [E] [E] [E] [E] [E] [E] [E] [E] [E] [E] [E]  
 
 |-------------------------|-14-14-14-14-14-12-------|
 |-12-12-12-12-12-14-15-12-|-------------------15-12-|
 |-------------------------|-------------------------|
 |-------------------------|-------------------------|
 |-------------------------|-------------------------|
 |-------------------------|-------------------------|

|
| E E E E E E E E E E E E E E E E
 
 |-------------------------|-------------------------|
 |-------------------------|-15-15-15-15-15-14-12----|
 |-12-12-12-12-12-14-16-12-|----------------------14-|
 |-------------------------|-------------------------|
 |-------------------------|-------------------------|
 |-------------------------|-------------------------|

~~
E E E E E E E E E E E E Q +Q
 
 |-------------------------|-----------------------||
 |----------------12-14-12-|------14---12--(12)\---||
 |-15-15-15-15-15----------|-15--------------------||
 |-------------------------|-----------------------||
 |-------------------------|-----------------------||
 |-------------------------|-----------------------||

|
| ~~
| E E E E E E E E E E E E H
 
 |-------------------------|-----------------------||
 |-------------------------|-----------15----------||
 |-11-11-11-11-11-12-14-12-|-11---14---------------||
 |-------------------------|-----------------------||
 |-------------------------|-----------------------||
 |-------------------------|-----------------------||

[C#5]Gtr II[E5] [D5] [C#5]
W +W +W Q. E +Q Q
| | | | | | |
[/] [/] [/] [/] [/] [/] [/] 
H. E E Q. E +Q Q H. E E Q. E +Q Q
 
 |-------------|-----------------|--------------|-----------------|
 |-------------|-----------------|--------------|-----------------|
 |-------------|-----------------|--------------|-----------------|
 |-6-------6-6S|==4----6-(6)S=7--|--6-------6-6S|=9----7-(7)--6---|
 |-------------|-----------------|--------------|-----------------|
 |-------------|-----------------|--------------|-----------------|

[F#5]W +W +H. [E5]Q Q. [D5]E +Q [B5]Q
| | | | | | | |
[/] [/] [/] [/] [/] [/] [/] [/] 
H. E E Q. E +Q Q H. E E Q. E +Q Q
 
 |-------------|-----------------|--------------|------------------|
 |-------------|-----------------|--------------|------------------|
 |-------------|-----------------|--------------|--------------4---|
 |-------------|-----------------|--------------|-/9----7-(7)S=4---|
 |-4-------4-4S|==2----4-(4)S=5--|--4-------4-4-|------------------|
 |-------------|-----------------|--------------|------------------|

[C#5]W +W +W [E5]Q. [D5]E +Q [C#5]Q
| | | | | | |
[/] [/] [/] [/] [/] [/] [/] 
H. E E Q. E +Q Q H. E E Q. E +Q Q
 
 |-------------|-----------------|--------------|-----------------|
 |-------------|-----------------|--------------|-----------------|
 |-------------|-----------------|--------------|-----------------|
 |-6-------6-6S|==4----6-(6)S=7--|--6-------6-6S|=9----7-(7)S=6---|
 |-------------|-----------------|--------------|-----------------|
 |-------------|-----------------|--------------|-----------------|

F#5 E5(tyF#52)G5 G#5
W +W +H. Q Q. E +Q Q
| | | | | | | |
[/] [/] [/] [/] [/] [/] [/] [/] 
H. E E Q. E +Q Q H. Q Q. E +Q Q
 
 |-------------|-----------------|-------------|-----------------||
 |-------------|-----------------|-------------|-----------------||
 |-------------|-----------------|-------------|-----------------||
 |-------------|-----------------|-------------|-----------------||
 |-4-------4-4S|==2----4-(4)S=5--|--4-------2--|-4----5-(5)S=6---||
 |-------------|-----------------|-------------|-----------------||

[A5] W +W
| |
[/] [/]  
[E] [E] [E] [E] [E] [E] [E] [E] [E] [E] [E] [E] [E] [E] [E] [E]  
 
 ||--------------------------|-------------------------|
 ||o-15-15-15-15-13-13-13-13-|-12-12-12-12-13-13-13-13-|
 ||--16-16-16-16-14-14-14-14-|-12-12-12-12-14-14-14-14-|
 ||--------------------------|-------------------------|
 ||o-------------------------|-------------------------|
 ||--------------------------|-------------------------|

[E] [E] [E] [E] [E] [E] [E] [E] [E] [E] [E] [E] [E] [E] [E] [E] 
+W +H. E E
| | | |
[/] [/] [/] [/] 
[E] [E] [E] [E] [E] [E] [E] [E] [E] [E] [E] [E] [E] [E] [E] [E]  
 
 |-------------------------|--------------------------|
 |-13-15-15-15-13-13-13-13-|-12--12-12-12-13-13-13-13-|
 |-14-16-16-16-14-14-14-14-|-12--12-12-12-14-14-14-14-|
 |-------------------------|--------------------------|
 |-------------------------|--------------------------|
 |-------------------------|--------------------------|

[E] [E] [E] [E] [E] [E] [E] [E] [E] [E] [E] [E] [E] [E] [E] [E] 
[F5] W +W
| |
[/] [/]  
[E] [E] [E] [E] [E] [E] [E] [E] [E] [E] [E] [E] [E] [E] [E] [E]  
 
 |-------------------------|-------------------------|
 |-15-15-15-15-13-13-13-13-|-12-12-12-12-13-13-13-13-|
 |-16-16-16-16-14-14-14-14-|-12-12-12-12-14-14-14-14-|
 |-------------------------|-------------------------|
 |-------------------------|-------------------------|
 |-------------------------|-------------------------|

[E] [E] [E] [E] [E] [E] [E] [E] [E] [E] [E] [E] [E] [E] [E] [E] 
+W +W
| |
[/] [/]  
[E] [E] [E] [E] [E] [E] [E] [E] [E] [E] [E] [E] [E] [E] [E] [E]  
 
 |-------------------------|---------------------------||
 |-13-15-15-15-13-13-13-13-|-12-12-12-12-13-13-13-13--o||
 |-14-16-16-16-14-14-14-14-|-12-12-12-12-14-14-14-14---||
 |-------------------------|---------------------------||
 |-------------------------|--------------------------o||
 |-------------------------|---------------------------||

[E] [E] [E] [E] [E] [E] [E] [E] [E] [E] [E] [E] [E] [E] [E] [E] 
[G5] W +W
| |
[/] [/]  
[E] [E] [E] [E] [E] [E] [E] [E] [E] [E] [E] [E] [E] [E] [E] [E]  
 
 |-------------------------|-------------------------|
 |-15p13p12h13-15p13p12h13-|-15p13p12h13-15p13p12h13-|
 |-16p14p12h14-16p14p12h14-|-16p14p12h14-16p14p12h14-|
 |-------------------------|-------------------------|
 |-------------------------|-------------------------|
 |-------------------------|-------------------------|

[E] [E] [E] [E] [E] [E] [E] [E] [E] [E] [E] [E] [E] [E] [E] [E] 
+W +W
| |
[/] [/]  
[E] [E] [E] [E] [E] [E] [E] [E] [E] [E] [E] [E] [E] [E] [E] [E]  
 
 |-------------------------|--------------------------||
 |-15p13p12h13-15p13p12h13-|-15p13p12h13-15p13p12h13--||
 |-16p14p12h14-16p14p12h14-|-16p14p12h14-16p14p12h14--||
 |-------------------------|--------------------------||
 |-------------------------|--------------------------||
 |-------------------------|--------------------------||

[E] [E] [E] [E] [E] [E] [E] [E] [E] [E] [E] [E] [E] [E] [E] [E] 
E5(type 2)
H H +H Q Q H H H E E E E
| | | | | | | | | | | |
[/] [/] [/] [/] [/] [/] [/] [/] [/] [/] [/] [/] 
\0.5/ \0.5/
~~~ ~~~~
H. Q +H H W +H +Q +Q
 
 |--------------|---------------|-12---------|-(12)----(12)------(12)-------||
 |-12-----------|--------12-----|------------|------------------------------||
 |-----------9--|-(9)-----------|------------|------------------------------||
 |--------------|---------------|------------|------------------------------||
 |--------------|---------------|------------|------------------------------||
 |--------------|---------------|------------|------------------------------||

2nd Guitar Solo
A5 E5 F#5(type 2) D5
W W W W
| | | |
[/] [/] [/] [/] 
~~~~~~~~~~~~~~~~
H Q Q a H Q Q a +H Q Q H +Q +Q
 
 |--------------|-----------------|-----------------------|--------------------|
 |-10-------10--|-10s12-------12--|-12b14-(12)----12--10--|--------------------|
 |-------9------|----------9------|-----------------------|-11----(11)--(11)---|
 |--------------|-----------------|-----------------------|--------------------|
 |--------------|-----------------|-----------------------|--------------------|
 |--------------|-----------------|-----------------------|--------------------|

[A5] W [E5] W
| |
[/] [/]  
~~~~~~
H Q a +Q Q. E +Q Q
 
 |-----------------------|-----------------|
 |-10----12--12b14-(12)--|-12----9-(9)-----|
 |-----------------------|--------------9--|
 |-----------------------|-----------------|
 |-----------------------|-----------------|
 |-----------------------|-----------------|

F#5(type 2) D5
W W
| |
[/] [/]  
\0.5/ \0.5/
a H Q Q H +Q +Q
 
 |----------------|--------------------------|
 |-9s10----9--10--|--------------------------|
 |----------------|-11----(11)-----(11)------|
 |----------------|--------------------------|
 |----------------|--------------------------|
 |----------------|--------------------------|

A5 E5 F#5(type 2) D5
W W W W
| | | |
[/] [/] [/] [/] 
~~~~
Q. E +Q Q a H Q Q a Q. E +Q a Q H.. E
 
 |------------------|-----------------|----------12-(12)--14s17--|-14-----------|
 |-10-----------10--|-10s12-------12--|-12s14--------------------|--------------|
 |-------9-(9)------|----------9------|--------------------------|--------------|
 |------------------|-----------------|--------------------------|--------------|
 |------------------|-----------------|--------------------------|--------------|
 |------------------|-----------------|--------------------------|--------------|

[A5] W
|
[/]  
a +H a +Q +E E
 
 |-19b21-(19)----19b21==(19)r=(19)p17-|
 |------------------------------------|
 |------------------------------------|
 |------------------------------------|
 |------------------------------------|
 |------------------------------------|

[E5] W [D5] W +W
| | |
[/] [/] [/] 
~~
Q a +Q +E +Q. a +H q S E. W
 
 |-19--22b24==(22)r=(22)b24-(22)\---|----------------------------|-------|
 |----------------------------------|-21b22-(21)----21----21pb22-|-19----|
 |----------------------------------|----------------------------|-------|
 |----------------------------------|----------------------------|-------|
 |----------------------------------|----------------------------|-------|
 |----------------------------------|----------------------------|-------|

[E5] W +W
| |
[/] [/]  
~~~
a +H q S E. H. E E
 
 |----------------------------|----------------|
 |-21b22-(21)----21----21pb22-|-19-------17-17-|
 |----------------------------|----------------|
 |----------------------------|----------------|
 |----------------------------|----------------|
 |----------------------------|----------------|

+W +W
| |
[/] [/]  
Q E E Q E E Q E E Q E E
 
 |-----16-16-16--19-19-|-19--22-22-22--22-22-|
 |-17------------------|---------------------|
 |---------------------|---------------------|
 |---------------------|---------------------|
 |---------------------|---------------------|
 |---------------------|---------------------|

Pre-chorus
[E5] W +W [C#5]W +W
| | | |
[/] [/] [/] [/] 
~~~~~~~~~~~~~~~~~~
a +W +W H H H H
 
 |-22b24==(22)--------|-(22)r--------||-----------|------------|
 |--------------------|--------------||------5----|--3----2----|
 |--------------------|--------------||------6----|--4---------|
 |--------------------|--------------||-3---------|-------7----|
 |--------------------|--------------||-4---------|------------|
 |--------------------|--------------||-----------|------------|

[B] [B] [B] [B] 
[C#5]+W +W [F#5]W +W
| | | |
[/] [/] [/] [/] 
[B] [B] [B] [B] [B] [B] [B] [B]  
 
 |------------|------------|-----------|------------|
 |------------|------------|-2---------|------------|
 |--4----1----|--2----4----|------4----|--2----1----|
 |--6----3----|--4----6----|-7----6----|--4----3----|
 |------------|------------|-----------|------------|
 |------------|------------|-----------|------------|

[B] [B] [B] [B] [B] [B] [B] [B] 
[F#5]+W +W [C#5]W +W
| | | |
[/] [/] [/] [/] 
~~
H H W H H H H
 
 |------------|-----------|-----------|------------|
 |------------|-----------|------5----|--3----2----|
 |--2----4----|-----------|------6----|--4---------|
 |--4----6----|--3--------|-3---------|-------7----|
 |------------|--4--------|-4---------|------------|
 |------------|-----------|-----------|------------|

H H W H H H H
[C#5]+W +W [D5]W +W
| | | |
[/] [/] [/] [/] 
[B] [B] [B] [B] [B] [E] [E] [E] [E] [B] [B]  
 
 |------------|------------|--------------|------------|
 |------------|------------|--------------|------------|
 |--4----1----|--2----4----|-6----4h6p4---|------------|
 |--6----3----|--4----6----|-7----6h7p6-7-|--4----4----|
 |------------|------------|------------9-|--5----5----|
 |------------|------------|--------------|------------|

[B] [B] [B] [B] [B] [E] [E] [E] [E] [B] [B] 
Chorus
[E5]W +W [F#5]W W[E5]
| |
[/] [/]  
Gtrs I, II
H E E E E W W +Q H Q
 
 |--------------|-----------||----------|---------------|
 |-3------------|-----------||----------|---------------|
 |-4----6h7p6p4-|-----------||----------|---------------|
 |------7h9p7p6-|--6--------||-4--------|-(4)--4----2---|
 |--------------|--7--------||-4--------|-(4)--4----2---|
 |--------------|-----------||-2--------|-(2)--2----0---|

H E E E E W
[F#5]W +Q H [E5]Q [F#5]W +W
 
 |----------|--------------|----------|--------|
 |----------|--------------|----------|--------|
 |----------|--------------|----------|--------|
 |-4--------|-(4)--4----2--|-4--------|-(4)----|
 |-4--------|-(4)--4----2--|-4--------|-(4)----|
 |-2--------|-(2)--2----0--|-2--------|-(2)----|

[D5]W [C#5F#5]Q H [E5]Q [F#5]W +Q H [E5]Q
 
 |----------|------------|----------|---------------|
 |----------|------------|----------|---------------|
 |-7--------|-6----------|----------|---------------|
 |-7--------|-6--4----2--|-4--------|-(4)--4----2---|
 |-5--------|-4--4----2--|-4--------|-(4)--4----2---|
 |----------|----2----0--|-2--------|-(2)--2----0---|

[F#5]W +Q H [E5]Q [F#5]W +W
 
 |----------|--------------|----------|--------||
 |----------|--------------|----------|--------||
 |----------|--------------|----------|--------||
 |-4--------|-(4)--4----2--|-4--------|-(4)----||
 |-4--------|-(4)--4----2--|-4--------|-(4)----||
 |-2--------|-(2)--2----0--|-2--------|-(2)----||

Outro-Chorus
[C#5] [F#5] [E5]  
 
 PM-----------------------|

E E E E E E E E E E Q H W +Q H Q
 
 |-----------------|-------------||----------|---------------|
 |-----------------|-------------||----------|---------------|
 |-----------------|-------------||----------|---------------|
 |-6-6-6-6-6-6-6-6-|-6-----------||-4--------|-(4)--4----2---|
 |-4-4-4-4-4-4-4-4-|-4-----------||-4--------|-(4)--4----2---|
 |-----------------|-------------||-2--------|-(2)--2----0---|

[F#5]W +Q H [E5]Q [F#5]W +W
 
 |----------|--------------|----------|--------|
 |----------|--------------|----------|--------|
 |----------|--------------|----------|--------|
 |-4--------|-(4)--4----2--|-4--------|-(4)----|
 |-4--------|-(4)--4----2--|-4--------|-(4)----|
 |-2--------|-(2)--2----0--|-2--------|-(2)----|

[D5]W [C#5F#5]Q H [E5]Q [F#5]W +Q H [E5]Q
 
 |----------|------------|----------|---------------|
 |----------|------------|----------|---------------|
 |-7--------|-6----------|----------|---------------|
 |-7--------|-6--4----2--|-4--------|-(4)--4----2---|
 |-5--------|-4--4----2--|-4--------|-(4)--4----2---|
 |----------|----2----0--|-2--------|-(2)--2----0---|

[F#5]W +Q H [E5]Q [F#5]W +W
 
 |----------|--------------|----------|--------||
 |----------|--------------|----------|--------||
 |----------|--------------|----------|--------||
 |-4--------|-(4)--4----2--|-4--------|-(4)----||
 |-4--------|-(4)--4----2--|-4--------|-(4)----||
 |-2--------|-(2)--2----0--|-2--------|-(2)----||

[C#5]  
 
 PM-----------------------------------------------------------|

E E E E E E E E E E E E E E Q E E E E E E E E E E E E E E Q
 
 |-----------------|----------------|-----------------|-----------------|
 |-----------------|----------------|-----------------|-----------------|
 |-----------------|----------------|-----------------|-----------------|
 |-6-6-6-6-6-6-6-6-|-6-6-6-6-6------|-6-6-6-6-6-6-6-6-|-6-6-6-6-6-------|
 |-4-4-4-4-4-4-4-4-|-4-4-4-4-4------|-4-4-4-4-4-4-4-4-|-4-4-4-4-4-------|
 |-----------------|----------------|-----------------|-----------------|

[F#5] [E5] [F#5]  
 
 PM----------------|

E E E E E E E E E E H Q W
 
 |-----------------|-------------|-------*|
 |-----------------|-------------|-------*|
 |-----------------|-------------|-------*|
 |-6-6-6-6-6-6-6-6-|-6---4----2--|-4\----*|
 |-4-4-4-4-4-4-4-4-|-4---4----2--|-4\----*|
 |-----------------|-----2----0--|-2\----*|

Duration Legend
 
 ---------------
 W - whole; H - half; Q - quarter; E - 8th; S - 16th; T - 32nd; X - 64th; a - acciaccatura

+ - note tied to previous; . - note dotted; .. - note double dotted
Uncapitalized letters represent notes that are staccato (1/2 duration)
Irregular groupings are notated above the duration line
Duration letters will always appear directly above the note/fret number it represents the
duration for. Duration letters with no fret number below them represent rests. Multi-
bar rests are notated in the form Wxn, where n is the number of bars to rest for. Low
melody durations appear below the staff
Tablature Legend
 
 ----------------

h - hammer-on
p - pull-off
b - bend
pb - pre-bend
r - bend release (if no number after the r, then release immediately)
/\ - slide into or out of (from/to "nowhere")
s - legato slide
S - shift slide
- natural harmonic
(n) - artificial harmonic
n(n) - tapped harmonic
~ - vibrato
tr - trill
T - tap
TP - trem. picking
PM - palm muting
\n/ - tremolo bar dip; n = amount to dip
\n - tremolo bar down
n/ - tremolo bar up
/n\ - tremolo bar inverted dip
= - hold bend; also acts as connecting device for hammers/pulls
- volume swell (louder/softer)
x - on rhythm slash represents muted slash
o - on rhythm slash represents single note slash
Misc Legend
 
 -----------

| - bar
|| - double bar
||o - repeat start
o|| - repeat end
*| - double bar (ending)
: - bar (freetime)
$ - Segno
& - Coda
Tempo markers - = BPM(8/16=s8/s16), where s8 = swing 8ths, s16 = swing 16ths

Important: The song above is NOT stored on the Chordie server. The original song is hosted at www.guitaretab.com. Chordie works as a search engine and provides on-the-fly formatting. Chordie does not index songs against artists'/composers' will. To remove this song please click here.

Text color:
Chord color:
Chord grids: 
Font size:    
Page size: 

A5 B B5 C# C#5 D5 E E5 F# F#5 F5 G#5 G5
Rate #1 of 3 versions

Jango Player

Login - add to songbook

SHARE PAGE  




You need to log in to post comments