Guitar Tabs, Chords and Lyrics
Major upgrade!! After one year development the new version of Chordie is now online! Please give feedback.


Power  Helloween

As recorded by Helloween
(From the 1995 Album THE TIME OF THE OATH)
Transcribed by Asmogriff (ComfortablyDumb)
Words and Music by Michael Weikath
Gtr I (Eb Ab Db Gb Bb Eb) - 'Dist'
Gtr II (Eb Ab Db Gb Bb Eb) - 'Dist'
Gtr III (Eb Ab Db Gb Bb Eb) - 'Overdriven'
Gtr IV (Eb Ab Db Gb Bb Eb) - 'Overdriven'
Gtr V (Eb Ab Db Gb Bb Eb) - 'Keyboard'
Intro
Q=220
[A5] [A5] [A5] 
[4/4] Gtr I
~~ ~~ ~~
E E E E E Q. E E E E E Q. E E E E E Q. Q. Q. Q
 
 |----------------|----------------|----------------|-----------------|
 |----------------|----------------|----------------|-----------------|
 |----------------|----------------|----------------|-----------------|
 |-2-2-2-2-2------|-2-2-2-2-2------|-2-2-2-2-2------|-----------------|
 |-0-0-0-0-0------|-0-0-0-0-0------|-0-0-0-0-0------|--------------3--|
 |-----------3----|-----------3----|-----------3----|---1----0--------|

|
| Gtr III
| W W W Q. Q. Q
 
 |----------------|----------------|----------------|-----------------|
 |----------------|----------------|----------------|--------8----10--|
 |----------------|----------------|----------------|-/10-------------|
 |----------------|----------------|----------------|-----------------|
 |----------------|----------------|----------------|-----------------|
 |----------------|----------------|----------------|-----------------|

|
| Gtr IV
| W W W Q. Q. Q
 
 |----------------|----------------|----------------|-----------------|
 |----------------|----------------|----------------|-----------------|
 |----------------|----------------|----------------|--------9----10--|
 |----------------|----------------|----------------|-/12-------------|
 |----------------|----------------|----------------|-----------------|
 |----------------|----------------|----------------|-----------------|

[Bb5] [Bb5] [C5] [D5]  
 
 PM---------|

Q E E E E E E Q. Q. Q
 
 |-----------------------|-------------------|
 |-----------------------|-------------------|
 |-----------------------|-------------------|
 |--3--------------------|--3-------5-----7--|
 |--1-------1--1-1-1-1-1-|--1-------3-----5--|
 |-----------------------|-------------------|

|
| ~~~~
| Q +H. Q. Q. Q
 
 |--8b10---(8)-----------|--8b10----8--------|
 |-----------------------|---------------10--|
 |-----------------------|-------------------|
 |-----------------------|-------------------|
 |-----------------------|-------------------|
 |-----------------------|-------------------|

|
| ~~~~
| Q +H. Q. Q. Q
 
 |-----------------------|-------------------|
 |-10b11--(10)-----------|-10b11---10--------|
 |-----------------------|---------------10--|
 |-----------------------|-------------------|
 |-----------------------|-------------------|
 |-----------------------|-------------------|

[C5] [A5] [G5] [E5]  
 
 PM--------|

Q E E E E E E Q. Q. Q
 
 |--------------------|----------------|
 |--------------------|----------------|
 |--------------------|----------------|
 |-----5--------------|----------------|
 |-----3--3-3-3-3-3-3-|--7-----5----2--|
 |--------------------|--5-----3----0--|

|
| ~~
| W Q. Q. Q
 
 |--------------------|----------------|
 |----11--------------|-------------8--|
 |--------------------|--9----10-------|
 |--------------------|----------------|
 |--------------------|----------------|
 |--------------------|----------------|

|
| ~~
| a W Q. Q. Q
 
 |--------------------|----------------|
 |--------------------|----------------|
 |-10h12--------------|-------------9--|
 |--------------------|-10----12-------|
 |--------------------|----------------|
 |--------------------|----------------|

[F5] [F5] [G5] [A5]  
 
 PM---------|

Q E E E E E E Q. Q. Q
 
 |----------------------|------------------------|
 |----------------------|------------------------|
 |----------------------|------------------------|
 |----------------------|------------------------|
 |--3-------------------|--3-------5----------7--|
 |--1------1-1-1-1--1-1-|--1-------3----------5--|

|
| ~~~~~~
| H. Q Q +Q Q Q
 
 |-----------------12---|------------------------|
 |-11b13================|=11r=(11)----10-----11--|
 |----------------------|------------------------|
 |----------------------|------------------------|
 |----------------------|------------------------|
 |----------------------|------------------------|

|
| ~~~~~~
| H. Q Q +Q Q a Q
 
 |----------------------|------------------------|
 |-----------------13---|------------------------|
 |-12b14================|=12r=(12)----10--10h12--|
 |----------------------|------------------------|
 |----------------------|------------------------|
 |----------------------|------------------------|
 PM------------|

E E E E E E E E Q. Q. Q
 
 |------------------|-----------------|
 |------------------|-----------------|
 |------------------|-----------------|
 |------------------|-----------------|
 |------------------|--------------3--|
 |--1-1-1-1-0-0-0-0-|---1----0--------|

|
| ~~
| W Q. Q. Q
 
 |------------------|-----------------|
 |------------------|--------8----10--|
 |-10---------------|-/10-------------|
 |------------------|-----------------|
 |------------------|-----------------|
 |------------------|-----------------|

|
| ~~
| W Q. Q. Q
 
 |------------------|-----------------|
 |------------------|-----------------|
 |------------------|--------9----10--|
 |-12---------------|-/12-------------|
 |------------------|-----------------|
 |------------------|-----------------|

[Bb5] [Bb5] [C5] [D5]  
 
 PM---------|

Q E E E E E E Q. Q. Q
 
 |-----------------------|--------------------|
 |-----------------------|--------------------|
 |-----------------------|--------------------|
 |--3--------------------|--3-----5-----7-----|
 |--1-------1--1-1-1-1-1-|--1-----3-----5-----|
 |-----------------------|--------------------|

|
| ~~~~
| Q +H. Q. Q. Q
 
 |--8b10---(8)-----------|-10----12----12b13--|
 |-----------------------|--------------------|
 |-----------------------|--------------------|
 |-----------------------|--------------------|
 |-----------------------|--------------------|
 |-----------------------|--------------------|

|
| ~~~~
| Q +H. Q. Q. Q
 
 |-----------------------|--------------------|
 |-10b11--(10)-----------|-11----13----13b15--|
 |-----------------------|--------------------|
 |-----------------------|--------------------|
 |-----------------------|--------------------|
 |-----------------------|--------------------|

[G5] [Bb5] [A5/E] [F5/C]  
 
 PM--------|

Q E E E E E E Q. Q. Q
 
 |-----------------|-------------------|
 |-----------------|-------------------|
 |-----------------|-------------------|
 |-----------------|----------7-----3--|
 |--5--------------|--8-------7-----3--|
 |--3--3-3-3-3-3-3-|--6----------------|

|
| ~~
| W Q. Q. Q
 
 |-----------------|-------------------|
 |-11--------------|-13b15---13----11--|
 |-----------------|-------------------|
 |-----------------|-------------------|
 |-----------------|-------------------|
 |-----------------|-------------------|

|
| ~~
| W Q. Q. Q
 
 |-----------------|-------------------|
 |-----------------|-------------------|
 |-12--------------|-14b15---14----12--|
 |-----------------|-------------------|
 |-----------------|-------------------|
 |-----------------|-------------------|

[D5] [F5] [G5]  
 
 PM------|

Q E E E E Q Q. Q. Q
 
 |----------------------------|---------------------------------|
 |----------------------------|---------------------------------|
 |----------------------------|---------------------------------|
 |--7-------------------------|---------------------------------|
 |--5--------5--5--5--5-------|--3------------3------------5----|
 |-----------------------0----|--1------------1------------3----|

|
| E S S E E E E E E E S S E E S S E E E
 
 |----------------------------|---------------------------------|
 |-10-11p10----10-------------|-10--11p10----10--12p10----10-11-|
 |----------10----10--9-----9-|-----------10-----------10-------|
 |----------------------12----|---------------------------------|
 |----------------------------|---------------------------------|
 |----------------------------|---------------------------------|

|
| E S S E E E E E E E S S E E S S E E E
 
 |----------------------------|---------------------------------|
 |----------------------------|---------------------------------|
 |-10-12p10----10-------------|-10--12p10----10--12p10----10-12-|
 |----------12----12-10-------|-----------12-----------12-------|
 |----------------------12-10-|---------------------------------|
 |----------------------------|---------------------------------|

[A5]  
 
 PM---------|

Q E E E E E E Q. Q. Q
 
 |------------------------|------------------||
 |------------------------|------------------||
 |------------------------|------------------||
 |------------------------|------------------||
 |--7---------------------|---5-----3--------||
 |--5--------5--5-5-5-5-5-|--------------5---||

|
| ~~~~~~~~~~~~~~~~~~~~~
| Q +H. +W
 
 |------------------------|------------------||
 |-11b13===(11)-----------|-(11)r------------||
 |------------------------|------------------||
 |------------------------|------------------||
 |------------------------|------------------||
 |------------------------|------------------||

|
| ~~~~~~~~~~~~~~~~~~~~~
| Q +H. +W
 
 |------------------------|------------------||
 |------------------------|------------------||
 |-12b14===(12)-----------|-(12)r------------||
 |------------------------|------------------||
 |------------------------|------------------||
 |------------------------|------------------||

Verse
[D5]W +W [Bb5]W +W
 
 ||-----------|------------|----------|--------|
 ||o----------|------------|----------|--------|
 ||--7--------|-(7)--------|-3--------|-(3)----|
 ||--7--------|-(7)--------|-3--------|-(3)----|
 ||o-5--------|-(5)--------|-1--------|-(1)----|
 ||-----------|------------|----------|--------|

[C5]W +W [F5]W [C/E]W
 
 |----------|------------|----------|------|
 |----------|------------|----------|------|
 |-5--------|-(5)--------|----------|------|
 |-5--------|-(5)--------|-3--------|------|
 |-3--------|-(3)--------|-3--------|-3----|
 |----------|------------|-1--------|-0----|

[D5]W +W [Bb5]W +W
 
 |----------|------------|----------|--------|
 |----------|------------|----------|--------|
 |-7--------|-(7)--------|-3--------|-(3)----|
 |-7--------|-(7)--------|-3--------|-(3)----|
 |-5--------|-(5)--------|-1--------|-(1)----|
 |----------|------------|----------|--------|

[G5]W [E5]W [D5]W Q. Q. Q
 
 |----------|----------|----------|--------------||
 |----------|----------|----------|--------------||
 |----------|----------|-7--------|--------------||
 |-5--------|-2--------|-7--------|--------------||
 |-5--------|-2--------|-5--------|--------------||
 |-3--------|-0--------|----------|-5----1----0--||

Pre-Chorus
[D5]Gtr I
W +W
 
 |-------------------------|--------------------------|
 |-------------------------|--------------------------|
 |--7----------------------|-(7)----------------------|
 |--7----------------------|-(7)----------------------|
 |--5----------------------|-(5)----------------------|
 |-------------------------|--------------------------|

|
| Gtr II
 
 | PM-------------------------------------------------

| E E E E E E E E E E E E E E E E
 
 |-------------------------|--------------------------|
 |-------------------------|--------------------------|
 |-------------------------|--------------------------|
 |-------------------------|--------------------------|
 |--5--5--8--8--5--5--8--8-|--5---5--8--8--5--5--8--8-|
 |-------------------------|--------------------------|

|
| Gtr V
| E E E E E E E E E E E E E E E E
 
 |-------------------------|-25--25-------------------|
 |-------------------27-27-|--------27-27-------------|
 |-------------26-26-------|--------------26-26-------|
 |-24-24-27-27-------------|--------------------27-27-|
 |-------------------------|--------------------------|
 |-------------------------|--------------------------|

[Bb5] W +W
 
 |-------------------------|--------------------------|
 |-------------------------|--------------------------|
 |-------------------------|--------------------------|
 |--8----------------------|-(8)----------------------|
 |--8----------------------|-(8)----------------------|
 |--6----------------------|-(6)----------------------|

|
 
 |-------------------------------------------------|

| E E E E E E E E E E E E E E E E
 
 |-------------------------|--------------------------|
 |-------------------------|--------------------------|
 |-------------------------|--------------------------|
 |-------------------------|--------------------------|
 |--------5--5--------5--5-|---------5--5--------5--5-|
 |--6--6--------6--6-------|--6---6--------6--6-------|

|
| E E E E E E E E E E E E E E E E
 
 |-------------------------|--------------------------|
 |-------------------------|-27--27-------------------|
 |-------------------27-27-|--------27-27-------------|
 |-------24-24-27-27-------|--------------27-27-------|
 |-26-26-------------------|--------------------26-26-|
 |-------------------------|--------------------------|

[C5] W +W
 
 |-------------------------|--------------------------|
 |-------------------------|--------------------------|
 |--5----------------------|-(5)----------------------|
 |--5----------------------|-(5)----------------------|
 |--3----------------------|-(3)----------------------|
 |-------------------------|--------------------------|

|
 
 | PM-------------------------------------------------

| E E E E E E E E E E E E E E E E
 
 |-------------------------|--------------------------|
 |-------------------------|--------------------------|
 |-------------------------|--------------------------|
 |-------------------------|--------------------------|
 |--------7--7--------7--7-|---------7--7--------7--7-|
 |--8--8--------8--8-------|--8---8--------8--8-------|

|
| E E E E E E E E E E E E E E E E
 
 |-------------------------|-24--24-------------------|
 |-------------------25-25-|--------25-25-------------|
 |-------------24-24-------|--------------24-24-------|
 |-------26-26-------------|--------------------26-26-|
 |-27-27-------------------|--------------------------|
 |-------------------------|--------------------------|

[F5] W [C/E] W
 
 |-------------------------|-------------------------|
 |-------------------------|-------------------------|
 |-------------------------|-------------------------|
 |--3----------------------|-------------------------|
 |--3----------------------|--3----------------------|
 |--1----------------------|--0----------------------|

|
 
 |------------------------------------------------|

| E E E E E E E E E E E E E E E E
 
 |-------------------------|-------------------------|
 |-------------------------|-------------------------|
 |-------------------------|-------------------------|
 |--------7--7--------7--7-|--7--7-------------------|
 |--8--8--------8--8-------|-------10-10--8--8-10-10-|
 |-------------------------|-------------------------|

|
| E E E E E E E E E E E E E E E E
 
 |-------------------25-25-|-------------------24-24-|
 |-------------25-25-------|-------------25-25-------|
 |-------26-26-------------|-------24-24-------------|
 |-27-27-------------------|-26-26-------------------|
 |-------------------------|-------------------------|
 |-------------------------|-------------------------|

[D5] W +W
 
 |-------------------------|--------------------------|
 |-------------------------|--------------------------|
 |--7----------------------|-(7)----------------------|
 |--7----------------------|-(7)----------------------|
 |--5----------------------|-(5)----------------------|
 |-------------------------|--------------------------|

|
 
 | PM-------------------------------------------------

| E E E E E E E E E E E E E E E E
 
 |-------------------------|--------------------------|
 |-------------------------|--------------------------|
 |-------------------------|--------------------------|
 |-------------------------|--------------------------|
 |--5--5--8--8--5--5--8--8-|--5---5--8--8--5--5--8--8-|
 |-------------------------|--------------------------|

|
| E E E E E E E E E E E E E E E E
 
 |-------------------------|-25--25-------------------|
 |-------------------27-27-|--------27-27-------------|
 |-------------26-26-------|--------------26-26-------|
 |-24-24-27-27-------------|--------------------24-24-|
 |-------------------------|--------------------------|
 |-------------------------|--------------------------|

[G5] W +W
 
 |-------------------------|--------------------------|
 |-------------------------|--------------------------|
 |-------------------------|--------------------------|
 |--5----------------------|-(5)----------------------|
 |--5----------------------|-(5)----------------------|
 |--3----------------------|-(3)----------------------|

|
 
 |-------------------------------------------------|

| E E E E E E E E E E E E E E E E
 
 |-------------------------|--------------------------|
 |-------------------------|--------------------------|
 |-------------------------|--------------------------|
 |--5--5--8--8--5--5--8--8-|--5---5--8--8--5--5--8--8-|
 |-------------------------|--------------------------|
 |-------------------------|--------------------------|

|
| E E E E E E E E E E E E E E E E
 
 |-------------------27-27-|-31--31-27-27-------------|
 |-------------27-27-------|--------------27-27-------|
 |-------27-27-------------|--------------------27-27-|
 |-29-29-------------------|--------------------------|
 |-------------------------|--------------------------|
 |-------------------------|--------------------------|

[C5] W +W
 
 |-------------------------|--------------------------|
 |-------------------------|--------------------------|
 |--5----------------------|-(5)----------------------|
 |--5----------------------|-(5)----------------------|
 |--3----------------------|-(3)----------------------|
 |-------------------------|--------------------------|

|
 
 | PM---------------------------------------------|

| E E E E E E E E E E E E E E E E
 
 |-------------------------|--------------------------|
 |-------------------------|--------------------------|
 |-------------------------|--------------------------|
 |--------2--2--------2--2-|---------2--2--------2--2-|
 |--3--3--------3--3-------|--3---3--------3--3-------|
 |-------------------------|--------------------------|

|
| E E E E E E E E E E E E E E E E
 
 |-------------------------|-24--24-------------------|
 |-------------------25-25-|--------25-25-------------|
 |-------------24-24-------|--------------24-24-------|
 |-------26-26-------------|--------------------26-26-|
 |-27-27-------------------|--------------------------|
 |-------------------------|--------------------------|

[A5]Gtrs I, II
~~
E E E E E Q. Q. Q. Q
 
 |----------------|--------------||
 |----------------|--------------||
 |----------------|--------------||
 |-2-2-2-2-2------|--------------||
 |-0-0-0-0-0------|-----------3--||
 |-----------3----|-1----0-------||

|
| W W
 
 |----------------|--------------||
 |----------------|--------------||
 |----------------|--------------||
 |----------------|--------------||
 |----------------|--------------||
 |----------------|--------------||

|
| W W
 
 |----------------|--------------||
 |----------------|--------------||
 |----------------|--------------||
 |----------------|--------------||
 |----------------|--------------||
 |----------------|--------------||

Chorus
$
[Bb5] [Bb5] [C5] [D5] [C5] [A5/E] [G5/D] [E5/B]  
 
 PM--------| PM--------|

Q E E E E E E Q. Q. Q Q E E E E E E Q. Q. Q
 
 |----------------|--------------|----------------|--------------|
 |----------------|--------------|----------------|--------------|
 |----------------|--------------|----------------|--------------|
 |-3--------------|-3----5----7--|-5--------------|-7----5----2--|
 |-1--1-1-1-1-1-1-|-1----3----5--|-3--3-3-3-3-3-3-|-7----5----2--|
 |----------------|--------------|----------------|--------------|

[F5/C] [F5] [G5] [A5]  
 
 PM--------| PM------------|

Q E E E E E E Q. Q. Q E E E E E E E E Q. Q. Q
 
 |----------------|--------------|-----------------|--------------|
 |----------------|--------------|-----------------|--------------|
 |----------------|--------------|-----------------|--------------|
 |-3--------------|--------------|-----------------|--------------|
 |-3--------------|-3----5----7--|-----------------|-----------3--|
 |----1-1-1-1-1-1-|-1----3----5--|-1-1-1-1-0-0-0-0-|-1----0-------|

[Bb5] [Bb5] [C5] [D5] [G5] [Bb5] [A5/E] [F5/C]  
 
 PM--------| PM--------|

Q E E E E E E Q. Q. Q Q E E E E E E Q. Q. Q
 
 |----------------|--------------|----------------|--------------|
 |----------------|--------------|----------------|--------------|
 |----------------|--------------|----------------|--------------|
 |-3--------------|-3----5----7--|----------------|------7----3--|
 |-1--1-1-1-1-1-1-|-1----3----5--|-5--------------|-8----7----3--|
 |----------------|--------------|-3--3-3-3-3-3-3-|-6------------|

To Coda
[D5] [F5] [G5] [A5]  
 
 PM----| PM--------|

Q E E E E Q Q. Q. Q Q E E E E E E Q. Q. Q
 
 |---------------|--------------|----------------|---------------||
 |---------------|--------------|----------------|--------------o||
 |---------------|--------------|----------------|---------------||
 |-7-------------|--------------|----------------|---------------||
 |-5--5-5-5-5----|-3----3----5--|-7--------------|-5----3-------o||
 |------------0--|-1----1----3--|-5--5-5-5-5-5-5-|-----------5---||

Interlude
[D5]W +W [Bb5]W +W [G5]W
 
 ||--------------|---------------|--------------|---------------|---------------|
 ||o-------------|---------------|--------------|---------------|---------------|
 ||--7-----------|-(7)-----------|--------------|---------------|---------------|
 ||--7-----------|-(7)-----------|-8------------|-(8)-----------|-5-------------|
 ||o-5-----------|-(5)-----------|-8------------|-(8)-----------|-5-------------|
 ||--------------|---------------|-6------------|-(6)-----------|-3-------------|

|
| Gtr III
| ~ ~
| H E E Q Q. Q. Q Q Q E E Q Q. Q. Q H E E Q
 
 ||--------------|------------5--|--------------|------------5--|---------------|
 ||o-6----6-5----|--6----8-------|-6--6--6-5----|--6----8-------|-6----6-5------|
 ||-----------7--|---------------|-----------7--|---------------|----------7----|
 ||--------------|---------------|--------------|---------------|---------------|
 ||o-------------|---------------|--------------|---------------|---------------|
 ||--------------|---------------|--------------|---------------|---------------|

|
| Gtr IV
| ~ ~
| H E E Q Q. Q. Q Q Q E E Q Q. Q. Q H E E Q
 
 ||--------------|---------------|--------------|---------------|---------------|
 ||o-------------|-------5----6--|--------------|-------5----6--|---------------|
 ||--7----7-5----|--7------------|-7--7--7-5----|--7------------|-7----7-5------|
 ||-----------7--|---------------|-----------7--|---------------|----------7----|
 ||o-------------|---------------|--------------|---------------|---------------|
 ||--------------|---------------|--------------|---------------|---------------|

1.
+W [F5]W
 
 |---------------|-----------------|
 |---------------|-----------------|
 |---------------|-----------------|
 |-(5)-----------|-3---------------|
 |-(5)-----------|-3---------------|
 |-(3)-----------|-1---------------|

|
| Q. Q. Q H E +Q.
 
 |------------5--|-----------------|
 |--6----8-------|-6----8b10-(8)---|
 |---------------|-----------------|
 |---------------|-----------------|
 |---------------|-----------------|
 |---------------|-----------------|

|
| Q. Q. Q H E +Q.
 
 |---------------|-----------------|
 |-------5----6--|------5b6--(5)---|
 |--7------------|-5---------------|
 |---------------|-----------------|
 |---------------|-----------------|
 |---------------|-----------------|

2.
[C5]W [C5]W +W
 
 |-----------------------||----------------|---------||
 |----------------------o||----------------|---------||
 |-5---------------------||-5--------------|-(5)-----||
 |-5---------------------||-5--------------|-(5)-----||
 |-3--------------------o||-3--------------|-(3)-----||
 |-----------------------||----------------|---------||

|
| H a +Q +Q Q +H. +W
 
 |-----------------------||-6b8===(6)------|-(6)r----||
 |-8----8b10==(8)r=(8)--o||----------------|---------||
 |-----------------------||----------------|---------||
 |-----------------------||----------------|---------||
 |----------------------o||----------------|---------||
 |-----------------------||----------------|---------||

|
| H a +Q +Q Q +H. +W
 
 |-----------------------||----------------|---------||
 |-5----5b6===(5)r=(5)--o||-6b8===(6)------|-(6)r----||
 |-----------------------||----------------|---------||
 |-----------------------||----------------|---------||
 |----------------------o||----------------|---------||
 |-----------------------||----------------|---------||

Guitar Solo
[D5]Gtr III
~~~~~~~~~~~~~ ~~~~~~~~~~~~~
 
 |---3---| |---3---|

Q +H E E E Q +H E E E
 
 |--------------------------------|--------------------------------|
 |-15b18====(15)-------15r15---13-|-15b18====(15)-------15r15---13-|
 |--------------------------------|--------------------------------|
 |--------------------------------|--------------------------------|
 |--------------------------------|--------------------------------|
 |--------------------------------|--------------------------------|

|
| Gtr I
 
 | PM--------------------------------------------------------------

| E E E E E E E E E E E E E E E E
 
 |--------------------------------|--------------------------------|
 |--------------------------------|--------------------------------|
 |--------------------------------|--------------------------------|
 |--------------------------------|--------------------------------|
 |--5-----5---8--8-5-5--8----8----|--5-----5---8--8-5-5--8----8----|
 |--------------------------------|--------------------------------|

|
| Gtr II
| W +W
 
 |--------------------------------|--------------------------------|
 |--------------------------------|--------------------------------|
 |--7-----------------------------|-(7)----------------------------|
 |--7-----------------------------|-(7)----------------------------|
 |--5-----------------------------|-(5)----------------------------|
 |--------------------------------|--------------------------------|

[Bb5] ~~~
E +Q. Q +E +S S H. E E
 
 |--------------------------------------|----------------------|
 |-15b18-(15)-----15b18====(15)r(15)p13-|-15------------15-15--|
 |--------------------------------------|----------------------|
 |--------------------------------------|----------------------|
 |--------------------------------------|----------------------|
 |--------------------------------------|----------------------|

|
 
 |---------------------------------------------------------|

| E E E E E E E E E E E E E E E E
 
 |--------------------------------------|----------------------|
 |--------------------------------------|----------------------|
 |--------------------------------------|----------------------|
 |--------------------------------------|----------------------|
 |------------5-5------------5----5-----|-------5-5------5--5--|
 |--6------6-------6-----6--------------|--6--6-----6-6--------|

|
| W +W
 
 |--------------------------------------|----------------------|
 |--------------------------------------|----------------------|
 |--------------------------------------|----------------------|
 |--8-----------------------------------|-(8)------------------|
 |--8-----------------------------------|-(8)------------------|
 |--6-----------------------------------|-(6)------------------|

[C5]  
 
 |---3---| |--3--| |---3----|

E E E E E E S S S E E E E E E E E S S E E
 
 |------------------------------------|----------------------------------|
 |-13h15p==13----13-------------------|----------------------------------|
 |------------15----15-14h15p14-12----|-15p=14p==12----12----------------|
 |---------------------------------15-|-------------15----15-14h15p14-12-|
 |------------------------------------|----------------------------------|
 |------------------------------------|----------------------------------|

|
 
 | PM----------------------------------------------------------------|

| E E E E E E E E E E E E E E E E
 
 |------------------------------------|----------------------------------|
 |------------------------------------|----------------------------------|
 |------------------------------------|----------------------------------|
 |------------------------------------|----------------------------------|
 |-------------7--7--------------7--7-|--------------7--7-----------7--7-|
 |--8----8-----------8--8-------------|--8-----8-----------8--8----------|

|
| W +W
 
 |------------------------------------|----------------------------------|
 |------------------------------------|----------------------------------|
 |--5---------------------------------|-(5)------------------------------|
 |--5---------------------------------|-(5)------------------------------|
 |--3---------------------------------|-(3)------------------------------|
 |------------------------------------|----------------------------------|

[F5]  
 
 |---3---| |---3---| |---3---| |---3---|

[E] [E] [E] [E] [E] [E] [E] [E] [E] [E] [E] [E]  
 
 |---------------------------------------------|
 |---------------------------------------------|
 |---------------------------------------------|
 |----------------------------------14-15---17-|
 |------------13-15---17-13-15---17------------|
 |-13-15---17----------------------------------|

|
 
 | PM------------------------------------------

| E E E E E E E E
 
 |---------------------------------------------|
 |---------------------------------------------|
 |---------------------------------------------|
 |-------------7----7----------------7----7----|
 |--8----8----------------8----8---------------|
 |---------------------------------------------|

|
| W
 
 |---------------------------------------------|
 |---------------------------------------------|
 |---------------------------------------------|
 |--3------------------------------------------|
 |--3------------------------------------------|
 |--1------------------------------------------|
 |---3---| |---3----| |---3---| |---3----|

[E] [E] [E] [E] [E] [E] [E] [E] [E] [E] [E] [E]  
 
 |-----------------------------------------------|
 |-----------------------------------------------|
 |------------------------14-15---17-17-15----14-|
 |------------14-15----17------------------------|
 |-13-15---17------------------------------------|
 |-----------------------------------------------|

|
 
 |-----------------------------------------|

| E E E E E E E E
 
 |-----------------------------------------------|
 |-----------------------------------------------|
 |-----------------------------------------------|
 |--7----7---------------------------------------|
 |------------10----10-----8----8----10----10----|
 |-----------------------------------------------|

|
| W
 
 |-----------------------------------------------|
 |-----------------------------------------------|
 |-----------------------------------------------|
 |-----------------------------------------------|
 |--3--------------------------------------------|
 |--0--------------------------------------------|

[D5] ~~~~~ ~~~~~~
 
 |----3----|

H. E E H. E +E E
 
 |-----------------------|-------------------------------|
 |-----------------------|-17b18============17r(17)p==15-|
 |-17b19-----------17p14-|-------------------------------|
 |-----------------------|-------------------------------|
 |-----------------------|-------------------------------|
 |-----------------------|-------------------------------|

|
 
 | PM----------------------------------------------------

| E E E E E E E E E E E E E E E E
 
 |-----------------------|-------------------------------|
 |-----------------------|-------------------------------|
 |-----------------------|-------------------------------|
 |-----------------------|-------------------------------|
 |--5----5-8-8-5-5--8--8-|--5-----5-8-8-5-5--8------8----|
 |-----------------------|-------------------------------|

|
| W +W
 
 |-----------------------|-------------------------------|
 |-----------------------|-------------------------------|
 |--7--------------------|-(7)---------------------------|
 |--7--------------------|-(7)---------------------------|
 |--5--------------------|-(5)---------------------------|
 |-----------------------|-------------------------------|

[G5] ~~~~~~ ~~~~~
H +E a +Q +S S H. E E
 
 |-17b18========(17)r-17b18==(17)r==(17)p15-|-----------------------|
 |------------------------------------------|-18b20-----------18-18-|
 |------------------------------------------|-----------------------|
 |------------------------------------------|-----------------------|
 |------------------------------------------|-----------------------|
 |------------------------------------------|-----------------------|

|
 
 |---------------------------------------------------------------|

| E E E E E E E E E E E E E E E E
 
 |------------------------------------------|-----------------------|
 |------------------------------------------|-----------------------|
 |------------------------------------------|-----------------------|
 |--5-----5-8-8---5------------5--8---8-----|--5----5-8-8-5-5--8--8-|
 |------------------------------------------|-----------------------|
 |------------------------------------------|-----------------------|

|
| W +W
 
 |------------------------------------------|-----------------------|
 |------------------------------------------|-----------------------|
 |------------------------------------------|-----------------------|
 |--5---------------------------------------|-(5)-------------------|
 |--5---------------------------------------|-(5)-------------------|
 |--3---------------------------------------|-(3)-------------------|

[C5] S S S S E E E E S S E S S S S E E E E S S S S
 
 |----------------------------------|--------------------------------------|
 |-17h18p17p15----15----------------|--------------------------------------|
 |-------------17----17-15-17p15S14-|-14h=15p14S12----12-------------------|
 |----------------------------------|--------------15----15-14-15p14p12----|
 |----------------------------------|-----------------------------------15-|
 |----------------------------------|--------------------------------------|

|
 
 | PM---------------------------------------------------------------|

| E E E E E E E E E E E E E E E E
 
 |----------------------------------|--------------------------------------|
 |----------------------------------|--------------------------------------|
 |----------------------------------|--------------------------------------|
 |--------------2--2--------2-----2-|---------------2--2--------2-----2----|
 |--3-----3-----------3--3----------|--3------3-----------3--3-------------|
 |----------------------------------|--------------------------------------|

|
| W +W
 
 |----------------------------------|--------------------------------------|
 |----------------------------------|--------------------------------------|
 |--5-------------------------------|-(5)----------------------------------|
 |--5-------------------------------|-(5)----------------------------------|
 |--3-------------------------------|-(3)----------------------------------|
 |----------------------------------|--------------------------------------|

[A5]  
 
 |---3---| |---3---| |---3----| |--3--|

[E] [E] [E] [E] [E] [E] [E] [E] [E] [E] [E] [E]  
 
 |--------------------------------------------|
 |--------------------------------------------|
 |-----------------------------------15h17h19-|
 |------------15h17h==19-15h17h===19----------|
 |-15h17h==19---------------------------------|
 |--------------------------------------------|

|
| W
 
 |--------------------------------------------|
 |--------------------------------------------|
 |--------------------------------------------|
 |--------------------------------------------|
 |--------------------------------------------|
 |--------------------------------------------|

|
| ~~
| E E E E E Q.
 
 |--------------------------------------------|
 |--------------------------------------------|
 |--------------------------------------------|
 |--2----2-----2----------2-------------------|
 |--0----0-----0----------0-------------------|
 |------------------3----------3--------------|
 |--3--| |---3----| |--3--| |--3--|

[E] [E] [E] [E] [E] [E] [E] [E] [E] [E] [E] [E]  
 
 |-------------------------------17h18h20-||
 |----------------------17h18h20----------||
 |----------15h17h===19-------------------||
 |-15h17h19-------------------------------||
 |----------------------------------------||
 |----------------------------------------||

|
| W
 
 |----------------------------------------||
 |----------------------------------------||
 |----------------------------------------||
 |----------------------------------------||
 |----------------------------------------||
 |----------------------------------------||

|
| Q. Q. Q
 
 |----------------------------------------||
 |----------------------------------------||
 |----------------------------------------||
 |----------------------------------------||
 |--------------------------------3-------||
 |--1-------------0-----------------------||

Interlude
[D5] ~~~~~~ ~~~~~[Bb5]
W +Q Q H Q Q E E Q Q. Q. Q
 
 |-20b22============|=(20)r----------5--||---------------|------------5--|
 |--6--------6-5----|---6------8--------||o-6--6--6-5----|--6----8-------|
 |---------------7--|-------------------||------------7--|---------------|
 |------------------|-------------------||---------------|---------------|
 |------------------|-------------------||o--------------|---------------|
 |------------------|-------------------||---------------|---------------|

| H E E Q Q. Q. Q
|
| Gtr IV
| ~~~~~~
| H E E Q Q. Q. Q Q Q E E Q Q. Q. Q
 
 |------------------|-------------------||---------------|---------------|
 |------------------|----------5-----6--||o--------------|-------5----6--|
 |--7--------7-5----|---7---------------||--7--7--7-5----|--7------------|
 |---------------7--|-------------------||------------7--|---------------|
 |------------------|-------------------||o--------------|---------------|
 |------------------|-------------------||---------------|---------------|

|
| W +W W +W
 
 |------------------|-------------------||---------------|---------------|
 |------------------|-------------------||o--------------|---------------|
 |--7---------------|--(7)--------------||---------------|---------------|
 |--7---------------|--(7)--------------||--8------------|-(8)-----------|
 |--5---------------|--(5)--------------||o-8------------|-(8)-----------|
 |------------------|-------------------||--6------------|-(6)-----------|

1.
[G5]~[F5] [C5]
H E E Q Q. Q. Q H E +Q. H a +Q +Q
 
 |-------------|------------5--|-----------------|----------------------|
 |-6----6-5----|--6----8-------|-6----8b10-(8)---|-8----8b10==(8)r=(8)--|
 |----------7--|---------------|-----------------|----------------------|
 |-------------|---------------|-----------------|----------------------|
 |-------------|---------------|-----------------|----------------------|
 |-------------|---------------|-----------------|----------------------|

|
| ~
| H E E Q Q. Q. Q H E +Q. H a +Q +Q
 
 |-------------|---------------|-----------------|----------------------|
 |-------------|-------5----6--|------5b6--(5)---|-5----5b6===(5)r=(5)--|
 |-7----7-5----|--7------------|-5---------------|----------------------|
 |----------7--|---------------|-----------------|----------------------|
 |-------------|---------------|-----------------|----------------------|
 |-------------|---------------|-----------------|----------------------|

|
| W +W W W
 
 |-------------|---------------|-----------------|----------------------|
 |-------------|---------------|-----------------|----------------------|
 |-------------|---------------|-----------------|-5--------------------|
 |-5-----------|-(5)-----------|-3---------------|-5--------------------|
 |-5-----------|-(5)-----------|-3---------------|-3--------------------|
 |-3-----------|-(3)-----------|-1---------------|----------------------|

2.
D.S. al Coda
[D5]~ [C5] ~~~~~~~~~~~~~~~
H E E Q Q. Q. Q Q +H. +W
 
 |-------------|------------5---||-6b8===(6)------|-(6)r-----------||
 |-6----6-5----|--6----8-------o||----------------|----------------||
 |----------7--|----------------||----------------|----------------||
 |-------------|----------------||----------------|----------------||
 |-------------|---------------o||----------------|----------------||
 |-------------|----------------||----------------|----------------||

|
| ~ ~~~~~~~~~~~~~~~
| H E E Q Q. Q. Q Q +H. +W
 
 |-------------|----------------||----------------|----------------||
 |-------------|-------5----6--o||-6b8===(6)------|-(6)r-----------||
 |-7----7-5----|--7-------------||----------------|----------------||
 |----------7--|----------------||----------------|----------------||
 |-------------|---------------o||----------------|----------------||
 |-------------|----------------||----------------|----------------||

|
| W +W W Q. Q. Q
 
 |-------------|----------------||----------------|----------------||
 |-------------|---------------o||----------------|----------------||
 |-7-----------|-(7)------------||-5--------------|----------------||
 |-7-----------|-(7)------------||-5--------------|----------------||
 |-5-----------|-(5)-----------o||-3--------------|-------------3--||
 |-------------|----------------||----------------|--1-----0-------||

Outro
&
[Bb5]Gtrs I, II[C5]
Q Q H W H H +W
 
 |------------|----------|-----------|--------|
 |------------|----------|-----------|--------|
 |-3----------|----------|------5----|-(5)----|
 |-3----------|----------|------5----|-(5)----|
 |-1----------|----------|------3----|-(3)----|
 |------------|----------|-----------|--------|

[A5]W +W [D5]E E E [C5D5C5]E E Q. [D5]Q Q H
 
 |----------|------------|----------------|------------*|
 |----------|------------|----------------|------------*|
 |----------|------------|-7-7-7-5-7-5----|-7----------*|
 |-7--------|-(7)--------|-7-7-7-5-7-5----|-7----------*|
 |-7--------|-(7)--------|-5-5-5-3-5-3----|-5----------*|
 |-5--------|-(5)--------|----------------|------------*|

Duration Legend
 
 ---------------
 W - whole; H - half; Q - quarter; E - 8th; S - 16th; T - 32nd; X - 64th; a - acciaccatura

+ - note tied to previous; . - note dotted; .. - note double dotted
Uncapitalized letters represent notes that are staccato (1/2 duration)
Irregular groupings are notated above the duration line
Duration letters will always appear directly above the note/fret number it represents the
duration for. Duration letters with no fret number below them represent rests. Multi-
bar rests are notated

Important: The song above is NOT stored on the Chordie server. The original song is hosted at www.guitaretab.com. Chordie works as a search engine and provides on-the-fly formatting. Chordie does not index songs against artists'/composers' will. To remove this song please click here.

Text color:
Chord color:
Chord grids: 
Font size:    
Page size: 

A5 A5/E Bb5 C/E C5 D5 E E5 E5/B F5 F5/C G5 G5/D
Rate #1 of 3 versions

Jango Player

Login - add to songbook

SHARE PAGE  




You need to log in to post comments