Guitar Tabs, Chords and Lyrics
Server problems seems to be fixed. Chordie has been experiencing problems with songs disappearing. These issues now seems to be fixed, but still verifying the fix. If you find anything strange, please email admin@chordie.com.


Mirror, Mirror  Helloween

Mirror, Mirror
-- Helloween (The Dark Ride)
 
 |------------------------------------------|

|Tuning: 1st guitar Standart E-A-D-G-B-e |
| 2nd Dropped D D-A-D-G-B-e |
 
 |------------------------------------------|

I haven't included the Solo... only the first note it's like
this:
 
 G-|--9^^---
 D-|--9^^---

They bend a few times and then the Solo starts...
Play this for beginning
 
 e-|--------------|
 B-|--------------|
 G-|--------------|
 D-|--3-----3-----|
 A-|--3-----3-----|
 D-|--3-----3-----|

Main Riff
 
 e-|-------------------------------------------------------------|
 B-|-------------------8----10----12----11~~-------10~~-------10-|
 G-|--9~~-------9------------------------------------------------|
 D-|-------------------------------------------------------------|
 A-|-------------------------------------------------------------|
 E-|-------------------------------------------------------------|

|
|
 
 e-|-------------------------------------------------------------|
 B-|-------------------------------------------------------------|
 G-|-------------------------------------------------------------|
 D-|--2---2---2---2---2---2---2---2---3---3---3---3----3--3--3--2|
 A-|--2---2---2---2---2---2---2---2---3---3---3---3----3--3--3--2|
 D-|--2---2---2---2---2---2---2---2---3---3---3---3----3--3--3--2|

P.M. ...........................................
 
 e-|------------------------------------10~--7~--10---9~--6~--9--|
 B-|----------------8-----10------12-----------------------------|
 G-|--9~~-----9--------------------------------------------------|
 D-|-------------------------------------------------------------|
 A-|-------------------------------------------------------------|
 E-|-------------------------------------------------------------|

|
|
 
 e-|-------------------------------------------------------------|
 B-|-------------------------------------------------------------|
 G-|-------------------------------------------------------------|
 D-|--2----2----2----2----2----2----2----2----------3--3--3--2---|
 A-|--2----2----2----2----2----2----2----2----------3--3--3--2---|
 D-|--2----2----2----2----2----2----2----2----------3--3--3--2---|

P.M. ........................................... Let Ring
Acoustic Verse
Em 2 Times
 
 e-|---------------------------------------|
 B-|---------------------------------------|
 G-|o---------------------------------0---o|
 D-|o-----2---2---2---2---2---2---2-------o|
 A-|----2---2---2---2---2---2---2---2------|
 E-|--0------------------------------------|

[Em]  
 
 e-|---------------------------------------|
 B-|---------------------------------------|
 G-|----------------------------------0----|
 D-|------2---2---2---2---2---2------------|
 A-|----2---2---2---2---2---2---2---2------|
 E-|--0---------------------------3--------|

|
|
 
 e-|---------------------------------------|
 B-|---------------------------------------|
 G-|---------------------------------------|
 D-|--2------------------------------------|
 A-|--2---Let Ring-------------------------|
 D-|--2------------------------------------|

My age you keep uncertain
[Em]  
 
 e-|---------------------------------------|
 B-|---------------------------------------|
 G-|----------------------------------0----|
 D-|------2---2---2---2---2---2------------|
 A-|----2---2---2---2---2---2---2---2------|
 E-|--0---------------------------3--------|

This spell can not be broken
[Gm]  
 
 e-|---------------------------------------0-----------|
 B-|------------------------------------------0--------|
 G-|----------------------------------0----------0-----|
 D-|------5---5---5---5---5---5---------------------0--|
 A-|----5---5---5---5---5---5---5---5------------------|
 E-|--3---------------------------6--------------------|

|
|
 
 e-|---------------------------------------------------|
 B-|---------------------------------------------------|
 G-|---------------------------------------------------|
 D-|--5------------------------------------2-----------|
 A-|--5---Let Ring-------------------------2-----------|
 D-|--5------------------------------------2-----------|

Visions of e--ternal youth
[Em]  
 
 e-|---------------------------------------|
 B-|---------------------------------------|
 G-|------------------------------------0--|
 D-|------2---2---2---2---2---2------------|
 A-|----2---2---2---2---2---2---2---2------|
 E-|--0---------------------------3--------|

|
|
 
 e-|---------------------------------------|
 B-|---------------------------------------|
 G-|---------------------------------------|
 D-|--2---------------------------2-2---3--|
 A-|--2---Let Ring----------------2-2---3--|
 D-|--2---------------------------2-2---3--|

P.M.
We share one face to--ge--ther
[Em]  
 
 e-|---------------------------------------|
 B-|---------------------------------------|
 G-|----------------------------------0----|
 D-|------2---2---2---2---2---2------------|
 A-|----2---2---2---2---2---2---2---2------|
 E-|--0---------------------------3--------|

|
|
 
 e-|---------------------------------------|
 B-|---------------------------------------|
 G-|---------------------------------------|
 D-|--2------------------------------------|
 A-|--2---Let Ring-------------------------|
 D-|--2------------------------------------|

Assosiates Forever
[Gm]  
 
 e-|---------------------------------------0-----------|
 B-|------------------------------------------0--------|
 G-|----------------------------------0----------0-----|
 D-|------5---5---5---5---5---5---------------------0--|
 A-|----5---5---5---5---5---5---5---5------------------|
 E-|--3---------------------------6--------------------|

Only you knows my truth
Refrain
 
 e-|--------------|
 B-|--------------|
 G-|--------------|
 D-|--3-----3-----|
 A-|--3-----3-----|
 D-|--3-----3-----|

4 Times
 
 e-|-------------------------------------------------------------|
 B-|-------------------------------------------------------------|
 G-|-------------------------------------------------------------|
 D-|--2----2----2----2----2----2----3----3----3----3---3--3--3--2|
 A-|--2----2----2----2----2----2----3----3----3----3---3--3--3--2|
 D-|--2----2----2----2----2----2----3----3----3----3---3--3--3--2|

P.M. ...........................................
Mirror Mirror on the Wall
Who's the master of them all?
 
 Mirror Mirror split in---------to 

Look at me, who are you?
Break 2 Times, then
 
 e-|--------------------------------------------------------|-0--|
 B-|--------------------------------------------------------|-0--|
 G-|--------------------------------------------------------|-0--|
 D-|--2--2---3---2--2--2--3-p-2--3--2--2--3--2---2--2--2--2-|-2--|
 A-|--2--2---3---2--2--2--3-p-2--3--2--2--3--2---2--2--2--2-|-2--|
 D-|--2--2---3---2--2--2--3-p-2--3--2--2--3--2---2--2--2--2-|-2--|

P.M.. ... ... ... ............
Heavy Verse 2 Times
 
 e-|--------------------------------------------------------|
 B-|--------------------------------------------------------|
 G-|--------------------------------------------------------|
 D-|--2---2--2--2---2---2--2--2--2--2--2--2--2---2---2--2---|
 A-|--2---2--2--2---2---2--2--2--2--2--2--2--2---2---2--2---|
 D-|--2---2--2--2---2---2--2--2--2--2--2--2--2---2---2--2---|

P.M...... ........................ ...
I swim in my reflection
 
 Mirror ans---------wer my question
 e-|-------------------------------------------------------|-----|
 B-|-------------------------------------------------------|-----|
 G-|-------------------------------------------------------|-----|
 D-|--5---5--5--5---5---5--5--5--5--5--5--5--5---5---5--5--|--2--|
 A-|--5---5--5--5---5---5--5--5--5--5--5--5--5---5---5--5--|--2--|
 D-|--5---5--5--5---5---5--5--5--5--5--5--5--5---5---5--5--|--2--|

P.M...... ........................ ... ...
Tell me what I want to hear
2 Times
 
 e-|--------------------------------------------------------|
 B-|--------------------------------------------------------|
 G-|--------------------------------------------------------|
 D-|--2---2--2--2---2---2--2--2--2--2--2--2--2---2---2--2---|
 A-|--2---2--2--2---2---2--2--2--2--2--2--2--2---2---2--2---|
 D-|--2---2--2--2---2---2--2--2--2--2--2--2--2---2---2--2---|

P.M...... ........................ ...
I see a perfect creature
My Evil, I can teach ya'
 
 e-|-------------------------------------------------------|-----|
 B-|-------------------------------------------------------|-----|
 G-|-------------------------------------------------------|-----|
 D-|--5---5--5--5---5---5--5--5--5--5--5--5--5---5---5--5--|--2--|
 A-|--5---5--5--5---5---5--5--5--5--5--5--5--5---5---5--5--|--2--|
 D-|--5---5--5--5---5---5--5--5--5--5--5--5--5---5---5--5--|--2--|

P.M...... ........................ ... ...
I'm drown you with your vanity
Refrain
 
 e-|--------------|
 B-|--------------|
 G-|--------------|
 D-|--3-----3-----|
 A-|--3-----3-----|
 D-|--3-----3-----|

4 Times
 
 e-|-------------------------------------------------------------|
 B-|-------------------------------------------------------------|
 G-|-------------------------------------------------------------|
 D-|--2----2----2----2----2----2----3----3----3----3---3--3--3--2|
 A-|--2----2----2----2----2----2----3----3----3----3---3--3--3--2|
 D-|--2----2----2----2----2----2----3----3----3----3---3--3--3--2|

P.M. ...........................................
Mirror Mirror on the Wall
Who's the master of them all?
 
 Mirror Mirror split in---------to 

Look at me, who are you?
Bridge
 
 e-|-------------------------------------------------------------|
 B-|-------------------------------------------------------------|
 G-|-------------------------------------------------------------|
 D-|--5---X--X-----------3---X--X-------------5---X--X----------3|
 A-|--5---X--X-----------3---X--X-------------5---X--X----------3|
 D-|--5---X--X--2/3/5~~--3---X--X--3/5/7~~-3--5---X--X--2/3/5~~-3|

No, my Life ain't beautiful No, my life is beautiful
Solo 4 Times
 
 e-|-------------------------------------------------------------|
 B-|-------------------------------------------------------------|
 G-|-------------------------------------------------------------|
 D-|--2----2----2----2----2----2----3----3----3----3---3--3--3--2|
 A-|--2----2----2----2----2----2----3----3----3----3---3--3--3--2|
 D-|--2----2----2----2----2----2----3----3----3----3---3--3--3--2|

P.M. ...........................................
4 Times
 
 e-|---------------------------------------------------------|
 B-|---------------------------------------------------------|
 G-|---------------------------------------------------------|
 D-|--2--2---3---2--2--2--3-p-2--3--2--2--3--2---2--2--2--2--|
 A-|--2--2---3---2--2--2--3-p-2--3--2--2--3--2---2--2--2--2--|
 D-|--2--2---3---2--2--2--3-p-2--3--2--2--3--2---2--2--2--2--|

P.M.. ... ... ... ............
Refrain 4 Times
 
 e-|-------------------------------------------------------------|
 B-|-------------------------------------------------------------|
 G-|-------------------------------------------------------------|
 D-|--2----2----2----2----2----2----3----3----3----3---3--3--3--2|
 A-|--2----2----2----2----2----2----3----3----3----3---3--3--3--2|
 D-|--2----2----2----2----2----2----3----3----3----3---3--3--3--2|

P.M. ...........................................
Mirror Mirror on the Wall
Who's the master of them all?
 
 Mirror Mirror split in---------to 

Look at me, who are you?
 
 e-|-------------------------------------------------------------|
 B-|-------------------8----10----12----11~~-------10~~-------10-|
 G-|--9~~-------9------------------------------------------------|
 D-|-------------------------------------------------------------|
 A-|-------------------------------------------------------------|
 E-|-------------------------------------------------------------|

|
|
 
 e-|-------------------------------------------------------------|
 B-|-------------------------------------------------------------|
 G-|-------------------------------------------------------------|
 D-|--2---2---2---2---2---2---2---2---3---3---3---3----3--3--3--2|
 A-|--2---2---2---2---2---2---2---2---3---3---3---3----3--3--3--2|
 D-|--2---2---2---2---2---2---2---2---3---3---3---3----3--3--3--2|

P.M. ...........................................
1. Mirror Mirror on the Wall
 
 2. Mirror Mirror split in---------to
 e-|------------------------------------10~--7~--10---9~--6~--9--|
 B-|----------------8-----10------12-----------------------------|
 G-|--9~~-----9--------------------------------------------------|
 D-|-------------------------------------------------------------|
 A-|-------------------------------------------------------------|
 E-|-------------------------------------------------------------|

|
|
 
 e-|-------------------------------------------------------------|
 B-|-------------------------------------------------------------|
 G-|-------------------------------------------------------------|
 D-|--2----2----2----2----2----2----2----2----------3--3--3--2---|
 A-|--2----2----2----2----2----2----2----2----------3--3--3--2---|
 D-|--2----2----2----2----2----2----2----2----------3--3--3--2---|

P.M. ........................................... Let Ring
1. Who's the master of them all?
2. Look at me, who are you?
mail me: leonardosetti@gmail.com

Important: The song above is NOT stored on the Chordie server. The original song is hosted at www.guitaretab.com. Chordie works as a search engine and provides on-the-fly formatting. Chordie does not index songs against artists'/composers' will. To remove this song please click here.

Text color:
Chord color:
Chord grids: 
Font size:    
Page size: 

Em Gm
Rate #1 of 3 versions

Jango Player

Login - add to songbook

SHARE PAGE  



You need to log in to post comments