Guitar Tabs, Chords and Lyrics
Server problems seems to be fixed. Chordie has been experiencing problems with songs disappearing. These issues now seems to be fixed, but still verifying the fix. If you find anything strange, please email admin@chordie.com.


Save Us  Helloween

As recorded by Helloween
(From the 1988 Album KEEPER OF THE SEVEN KEYS PART II)
Transcribed by Asmogriff (ComfortablyDumb)
Words and Music by Kai Hansen
Gtr I (E A D G B E) - 'Dist'
Gtr II (E A D G B E) - 'Dist'
Gtr III (E A D G B E) - 'Dist'
Gtr IV (E A D G B E) - 'Dist'
Gtr V (E A D G B E) - 'Pick Slides'
Gtr VI (E A D G B E) - 'Organ'
Intro
Q=260
N.C.
[4/4] Gtr I
Wx13
 
 |---------|
 |---------|
 |---------|
 |---------|
 |---------|
 |---------|

1. 2.
[E5]Q [F#5]H E E [E5]Q [F#5]H E E [E5]Q [F#5]H E E [A5]Q. [E5]Q. [B5]Q [B5]Q. [A5]Q. [E5]Q
 
 ||--------------|-------------|-------------|---------------||---------------|
 ||o-------------|-------------|-------------|--------------o||---------------|
 ||--------------|-------------|-------------|---------------||---------------|
 ||--------------|-------------|-------------|-2---------4---||-4----2--------|
 ||o-2--4----4-4-|-2--4----4-4-|-2--4----4-4-|-0----2----2--o||-2----0----2---|
 ||--0--2----2-2-|-0--2----2-2-|-0--2----2-2-|------0--------||-----------0---|

[E5]Q [F#5]H E E [E5] Q [F#5]H E E [E5] Q [F#5]H E E [A5]Q. [E5]Q. [B5]Q
 
 |-------------|---------------|---------------|---------------|
 |-------------|---------------|---------------|---------------|
 |-------------|---------------|---------------|---------------|
 |-------------|---------------|---------------|-2---------4---|
 |-2--4----4-4-|--2---4----4-4-|--2---4----4-4-|-0----2----2---|
 |-0--2----2-2-|--0---2----2-2-|--0---2----2-2-|------0--------|

|
| Gtr II
| W +W +W Q. Q. Q
 
 |-------------|---------------|---------------|---------------|
 |-------------|---------------|---------------|---------------|
 |-------------|---------------|---------------|-2---------4---|
 |-4-----------|-(4)-----------|-(4)-----------|-2----2----4---|
 |-4-----------|-(4)-----------|-(4)-----------|-0----2----2---|
 |-2-----------|-(2)-----------|-(2)-----------|------0--------|

[E5]Q [F#5]H E E [E5] Q [F#5]H E E [E5] Q [F#5]H E E [B5]Q. [A5]Q. [E5]Q
 
 |--------------|---------------|---------------|---------------||
 |--------------|---------------|---------------|---------------||
 |--------------|---------------|---------------|---------------||
 |--------------|---------------|---------------|-4----2--------||
 |-2--4-----4-4-|--2---4----4-4-|--2---4----4-4-|-2----0----2---||
 |-0--2-----2-2-|--0---2----2-2-|--0---2----2-2-|-----------0---||

|
| Q H. +W +W Q. Q. Q
 
 |--------------|---------------|---------------|---------------||
 |--------------|---------------|---------------|---------------||
 |--------------|---------------|---------------|-4----2--------||
 |-2--4---------|-(4)-----------|-(4)-----------|-4----2----2---||
 |-2--4---------|-(4)-----------|-(4)-----------|-2----0----2---||
 |-0--2---------|-(2)-----------|-(2)-----------|-----------0---||

Pre-Verse
1. 2.
[E5]Q [F#5]H E E [E5]Q [F#5]H E E [E5]Q [F#5]H E E [A5]Q. [E5]Q. [B5]Q [B5]Q. [A5]Q. [E5]Q
 
 ||--------------|-------------|-------------|---------------||---------------|
 ||o-------------|-------------|-------------|--------------o||---------------|
 ||--------------|-------------|-------------|-2---------4---||-4----2--------|
 ||--2--4----4-4-|-2--4----4-4-|-2--4----4-4-|-2----2----4---||-4----2----2---|
 ||o-2--4----4-4-|-2--4----4-4-|-2--4----4-4-|-0----2----2--o||-2----0----2---|
 ||--0--2----2-2-|-0--2----2-2-|-0--2----2-2-|------0--------||-----------0---|

|
| W W W W W
 
 ||--------------|-------------|-------------|---------------||---------------|
 ||o-------------|-------------|-------------|--------------o||---------------|
 ||--------------|-------------|-------------|---------------||---------------|
 ||--------------|-------------|-------------|---------------||---------------|
 ||o-------------|-------------|-------------|--------------o||---------------|
 ||--------------|-------------|-------------|---------------||---------------|

[E5]Q [F#5]H E E [E5]Q [F#5]H E E
 
 ||------------------|-----------------|
 ||o-----------------|-----------------|
 ||------------------|-----------------|
 ||--2---4-------4-4-|-2---4-------4-4-|
 ||o-2---4-------4-4-|-2---4-------4-4-|
 ||--0---2-------2-2-|-0---2-------2-2-|

|
| E E E E E E E E E E E E E E E E
 
 ||------------------|-----------------|
 ||o-----------------|-----------------|
 ||------------------|-----------------|
 ||------------------|-----------------|
 ||o-----------------|-----------------|
 ||--0-2-2-2-2-2-2-2-|-0-2-2-2-2-2-2-2-|

1. 2.
[E5]Q [F#5]H E E [A5]Q. [E5]Q. [B5]Q [B5]Q. [A5]Q. [E5]Q
 
 |-----------------|---------------||---------------||
 |-----------------|--------------o||---------------||
 |-----------------|-2---------4---||-4----2--------||
 |-2---4-------4-4-|-2----2----4---||-4----2----2---||
 |-2---4-------4-4-|-0----2----2--o||-2----0----2---||
 |-0---2-------2-2-|------0--------||-----------0---||

|
| E E E E E E E E Q. Q. Q Q. Q. Q
 
 |-----------------|---------------||---------------||
 |-----------------|--------------o||---------------||
 |-----------------|---------------||---------------||
 |-----------------|-2---------4---||-4----2--------||
 |-----------------|-0----2----2--o||-2----0----2---||
 |-0-2-2-2-2-2-2-2-|------0--------||-----------0---||

Verse
$
$$
Q H E E Q H E E Q H E E Q. Q. Q
||--------------|-------------|-------------|--------------|
||o-------------|-------------|-------------|--------------|
||--------------|-------------|-------------|-2---------4--|
||--2--4----4-4-|-2--4----4-4-|-2--4----4-4-|-2----2----4--|
||o-2--4----4-4-|-2--4----4-4-|-2--4----4-4-|-0----2----2--|
||--0--2----2-2-|-0--2----2-2-|-0--2----2-2-|------0-------|
|
| Q H E E Q H E E Q H E E Q. Q. Q
||--------------|-------------|-------------|--------------|
||o-------------|-------------|-------------|--------------|
||--------------|-------------|-------------|-2---------4--|
||--2--4----4-4-|-2--4----4-4-|-2--4----4-4-|-2----2----4--|
||o-2--4----4-4-|-2--4----4-4-|-2--4----4-4-|-0----2----2--|
||--0--2----2-2-|-0--2----2-2-|-0--2----2-2-|------0-------|
1.
N.C. B5 A5 E5
PM------------| PM--------------------|
E E E E E E E E Q E E +E E E E E E E E E E E E Q. Q. Q
|-----------------|------------------|-----------------|----------------||
|-----------------|------------------|-----------------|---------------o||
|-----------------|------------------|-----------------|-4----2---------||
|-----------------|------------------|-----------------|-4----2----2----||
|-----------------|------------------|-----------------|-2----0----2---o||
|-0-0-0-0-0-0-0-0-|-5--0-4-(4)-0-0-0-|-0-2-2-2-2-2-2-2-|-----------0----||
|
| PM------------| PM--------------------|
| E E E E E E E E Q E E +E E E E E E E E E E E E Q. Q. Q
|-----------------|------------------|-----------------|----------------||
|-----------------|------------------|-----------------|---------------o||
|-----------------|------------------|-----------------|-4----2---------||
|-----------------|------------------|-----------------|-4----2----2----||
|-----------------|------------------|-----------------|-2----0----2---o||
|-0-0-0-0-0-0-0-0-|-5--0-4-(4)-0-0-0-|-0-2-2-2-2-2-2-2-|-----------0----||
2.
N.C.
PM| PM| PM| PM| PM| PM|
Q E E E E E E E E E E E E Q Q E E E E E E
|----------------|-----------------|----------------|
|----9-----9-----|-9-----9-----9\--|----7-----7-----|
|----------------|-----------------|----------------|
|-6----6-6---6-6-|---6-6---6-6-----|-4----4-4---4-4-|
|----------------|-----------------|----------------|
|----------------|-----------------|----------------|
|
| PM| PM| PM| PM| PM| PM|
| Q E E E E E E E E E E E E Q Q E E E E E E
|----------------|-----------------|----------------|
|----------------|-----------------|----------------|
|----9-----9-----|-9-----9-----9\--|----7-----7-----|
|----------------|-----------------|----------------|
|-7----7-7---7-7-|---7-7---7-7-----|-5----5-5---5-5-|
|----------------|-----------------|----------------|
PM| PM| PM| PM|
E E E E E E E E Q E E E E E E
|-----------------|------------------|
|-7-----7-----7---|----7-----7-------|
|-----------------|------------------|
|---4-4---4-4-----|-4----4-4---4-4---|
|-----------------|------------------|
|-----------------|------------------|
|
| PM| PM| PM| PM|
| E E E E E E E E Q E E E E E E
|-----------------|------------------|
|-----------------|------------------|
|-7-----7-----7---|----7-----7-------|
|-----------------|------------------|
|---5-5---5-5-----|-5----5-5---5-5---|
|-----------------|------------------|
E E Q H Q H E E Q H E E Q H E E Q. Q. Q
|--------------|-------------|-------------|-------------|----------------||
|-7------------|-------------|-------------|-------------|----------------||
|--------------|-------------|-------------|-------------|-2---------4----||
|--------------|-2--4----4-4-|-2--4----4-4-|-2--4----4-4-|-2----2----4----||
|--------9\----|-2--4----4-4-|-2--4----4-4-|-2--4----4-4-|-0----2----2----||
|--------7\----|-0--2----2-2-|-0--2----2-2-|-0--2----2-2-|------0---------||
|
| E E Q H Q H E E Q H E E Q H E E Q. Q. Q
|--------------|-------------|-------------|-------------|----------------||
|--------------|-------------|-------------|-------------|----------------||
|-7------------|-------------|-------------|-------------|-2---------4----||
|--------------|-2--4----4-4-|-2--4----4-4-|-2--4----4-4-|-2----2----4----||
|--------9\----|-2--4----4-4-|-2--4----4-4-|-2--4----4-4-|-0----2----2----||
|--------7\----|-0--2----2-2-|-0--2----2-2-|-0--2----2-2-|------0---------||
Chorus
N.C.
PM------------------------------|
||------------------|-----------------|
||o-----------------|-----------------|
||------------------|-----------------|
||------------------|-----------------|
||o-----------------|-----------------|
||--0-0-0-0-0-0-0-0-|-0-0-0-0-0-0-0-0-|
|
| PM------------------------------|
| E E E E E E E E E E E E E E E E
||------------------|-----------------|
||o-----------------|-----------------|
||------------------|-----------------|
||------------------|-----------------|
||o-----------------|-----------------|
||--0-0-0-0-0-0-0-0-|-0-0-0-0-0-0-0-0-|
PM----| PM------------|
Q Q E E E E Q. Q. Q E E E E E E E E
|---------------|--------------|------------------|
|-7--9----------|--------------|------------------|
|-7--9----------|-7----7----4--|------------------|
|-7--9----------|-7----7----4--|------------------|
|-5--7----------|-5----5----2--|------------------|
|-------0-0-0-0-|--------------|-0-0-0-0-0-0-0-0--|
|
| PM----| PM------------|
| Q Q E E E E Q. Q. Q E E E E E E E E
|---------------|--------------|------------------|
|-7--9----------|--------------|------------------|
|-7--9----------|-7----7----4--|------------------|
|-7--9----------|-7----7----4--|------------------|
|-5--7----------|-5----5----2--|------------------|
|-------0-0-0-0-|--------------|-0-0-0-0-0-0-0-0--|
1.
PM------------|
E E E E E E E E Q. Q. Q +E Q. Q Q
|-----------------|--------------|-----------------||
|-----------------|-8----7----8--|-(8)-7----7--7--o||
|-----------------|-7----7----7--|-(7)-7----7--7---||
|-----------------|-7----7----7--|-(7)-7----7--7---||
|-----------------|-5----5----5--|-(5)-5----5--5--o||
|-0-0-0-0-0-0-0-0-|--------------|-----------------||
|
| PM------------|
| E E E E E E E E Q. Q. Q +E Q. Q Q
|-----------------|--------------|-----------------||
|-----------------|-8----7----8--|-(8)-7----7--7--o||
|-----------------|-7----7----7--|-(7)-7----7--7---||
|-----------------|-7----7----7--|-(7)-7----7--7---||
|-----------------|-5----5----5--|-(5)-5----5--5--o||
|-0-0-0-0-0-0-0-0-|--------------|-----------------||
2.
D.S.
D.S.
Q. Q. Q +E Q. Q Q
|--------------|-------------------||
|-8----7----8--|-(8)-7-------------||
|-7----7----7--|-(7)-7----7--------||
|-7----7----7--|-(7)-7----7--------||
|-5----5----5--|-(5)-5----5--------||
|--------------|-------------7\----||
|
| Q. Q. Q +E Q. Q Q
|--------------|-------------------||
|-8----7----8--|-(8)-7-------------||
|-7----7----7--|-(7)-7----7--------||
|-7----7----7--|-(7)-7----7--------||
|-5----5----5--|-(5)-5----5--------||
|--------------|-------------7\----||
Bridge
N.C.
~~~~~~~~~~~~~~~~ ~~~~~~~~~~~~~~~~
W +H. Q W +Q H Q
|-----------|---------------|-----------|------------------|
|-----------|---------------|-----------|------------------|
|-11--------|-(11)----------|--9--------|--(9)---8-----9---|
|-----------|-----------11--|-----------|------------------|
|-----------|---------------|-----------|------------------|
|-----------|---------------|-----------|------------------|
|
| ~~~~~~~~~~~~~~~~ ~~~~~~~~~~~~~~~~
| W +H. Q W +Q H Q
|--9--------|--(9)----------|-----------|-------11----12---|
|-----------|------------9--|-12--------|-(12)-------------|
|-----------|---------------|-----------|------------------|
|-----------|---------------|-----------|------------------|
|-----------|---------------|-----------|------------------|
|-----------|---------------|-----------|------------------|
|
| Gtr III
| ~~~~~~~~~~~~~~~~ ~~~~~~~~~~~~~~~~
| W +H. Q W +Q H Q
|-----------|---------------|-----------|--------------9---|
|-10--------|-(10)----------|--9--------|--(9)--12---------|
|-----------|-----------11--|-----------|------------------|
|-----------|---------------|-----------|------------------|
|-----------|---------------|-----------|------------------|
|-----------|---------------|-----------|------------------|
N.C.
~~~~~~~~~~~~~~~ ~~~~~~~~~~~~~~~~
E E H. +H. Q W +Q H Q
|--------------|---------------|-----------|------------------|
|--------------|---------------|-----------|------------------|
|-----11-------|-(11)----------|--9--------|--(9)---8-----9---|
|--------------|-----------11--|-----------|------------------|
|-x-x----------|---------------|-----------|------------------|
|-x-x----------|---------------|-----------|------------------|
|
| ~~~~~~~~~~~~~~~ ~~~~~~~~~~~~~~~~
| Q H. +H. Q W +Q H Q
|------9-------|--(9)----------|-----------|-------11----12---|
|--------------|------------9--|-12--------|-(12)-------------|
|--------------|---------------|-----------|------------------|
|--------------|---------------|-----------|------------------|
|--------------|---------------|-----------|------------------|
|--------------|---------------|-----------|------------------|
|
| ~~~~~~~~~~~~~~~ ~~~~~~~~~~~~~~~~
| Q H. +H. Q W +Q H Q
|--------------|---------------|-----------|--------------9---|
|-----10-------|-(10)----------|--9--------|--(9)--12---------|
|--------------|-----------11--|-----------|------------------|
|--------------|---------------|-----------|------------------|
|--------------|---------------|-----------|------------------|
|--------------|---------------|-----------|------------------|
N.C.
~~~~~~~~~~~~~~~ ~~~~~~~~~~~~~~~
E E H. +H. Q E E H. +Q H Q
|--------------|---------------|--------------|------------------|
|--------------|---------------|--------------|------------------|
|-----11-------|-(11)----------|------9-------|--(9)---8-----9---|
|--------------|-----------11--|--------------|------------------|
|-x-x----------|---------------|-x-x----------|------------------|
|-x-x----------|---------------|-x-x----------|------------------|
|
| ~~~~~~~~~~~~~~~ ~~~~~~~~~~~~~~~
| Q H. +H. Q Q H. +Q H Q
|------9-------|--(9)----------|--------------|-------11----12---|
|--------------|------------9--|-----12-------|-(12)-------------|
|--------------|---------------|--------------|------------------|
|--------------|---------------|--------------|------------------|
|--------------|---------------|--------------|------------------|
|--------------|---------------|--------------|------------------|
|
| ~~~~~~~~~~~~~~~ ~~~~~~~~~~~~~~~
| Q H. +H. Q Q H. +Q H Q
|--------------|---------------|--------------|--------------9---|
|-----10-------|-(10)----------|------9-------|--(9)--12---------|
|--------------|-----------11--|--------------|------------------|
|--------------|---------------|--------------|------------------|
|--------------|---------------|--------------|------------------|
|--------------|---------------|--------------|------------------|
N.C.
~~~~~~~~~~~~~~~ ~~~~~~~~~~~~~~~
E E H. +H. Q E E H. +H. Q
|--------------|---------------|--------------|---------------||
|--------------|---------------|--------------|---------------||
|-----11-------|-(11)----------|------9-------|--(9)----------||
|--------------|-----------11--|--------------|---------------||
|-x-x----------|---------------|-x-x----------|---------------||
|-x-x----------|---------------|-x-x----------|---------------||
|
| ~~~~~~~~~~~~~~~ ~~~~~~~~~~~~~~~
| Q H. +H. Q Q H. +H. Q
|------9-------|--(9)----------|--------------|---------------||
|--------------|------------9--|-----12-------|-(12)----------||
|--------------|---------------|--------------|---------------||
|--------------|---------------|--------------|---------------||
|--------------|---------------|--------------|---------------||
|--------------|---------------|--------------|---------------||
|
| ~~~~~~~~~~~~~~~ ~~~~~~~~~~~~~~~
| Q H. +H. Q Q H. +H. Q
|--------------|---------------|--------------|---------------||
|-----10-------|-(10)----------|------9-------|--(9)----------||
|--------------|-----------11--|--------------|---------------||
|--------------|---------------|--------------|---------------||
|--------------|---------------|--------------|---------------||
|--------------|---------------|--------------|---------------||
Verse
N.C.
Gtr IV
| | | | | | | | | | | | | | | |
o / / / / / / / / / / / / / / /
W +W
||-------------------|--------------------|
||o-10---------------|-(10)---------------|
||-------------------|--------------------|
||-------------------|--------------------|
||o------------------|--------------------|
||-------------------|--------------------|
|
| W +W
||-------------------|--------------------|
||o------------------|--------------------|
||---9---------------|--(9)---------------|
||-------------------|--------------------|
||o------------------|--------------------|
||-------------------|--------------------|
|
| W +W
||-------------------|--------------------|
||o------------------|--------------------|
||-------------------|--------------------|
||--11---------------|-(11)---------------|
||o------------------|--------------------|
||-------------------|--------------------|
| | | | | | | | | | | | | | | |
o / / / / / / / / / / / / / / /
W +W
|-12---------------|-(12)---------------|
|------------------|--------------------|
|------------------|--------------------|
|------------------|--------------------|
|------------------|--------------------|
|------------------|--------------------|
|
| W +W
|------------------|--------------------|
|-12---------------|-(12)---------------|
|------------------|--------------------|
|------------------|--------------------|
|------------------|--------------------|
|------------------|--------------------|
|
| W +W
|------------------|--------------------|
|--9---------------|--(9)---------------|
|------------------|--------------------|
|------------------|--------------------|
|------------------|--------------------|
|------------------|--------------------|
1.
N.C.
| | | | | | | | | | | | | | | |
o / / / / / / / / / / / o / / /
W +H H
|-10---------------|-(10)----------------|
|------------------|------------14-------|
|------------------|---------------------|
|------------------|---------------------|
|------------------|---------------------|
|------------------|---------------------|
|
| W +H H
|------------------|---------------------|
|-10---------------|-(10)----------------|
|------------------|------------13-------|
|------------------|---------------------|
|------------------|---------------------|
|------------------|---------------------|
|
| W +H H
|------------------|---------------------|
|------------------|---------------------|
|-11---------------|-(11)--------9-------|
|------------------|---------------------|
|------------------|---------------------|
|------------------|---------------------|
| | | | | | | | | | | | | | | |
o / / / / / / / / / / / / / / /
W +W
|-14---------------|-(14)-----------------||
|------------------|---------------------o||
|------------------|----------------------||
|------------------|----------------------||
|------------------|---------------------o||
|------------------|----------------------||
|
| W +W
|------------------|----------------------||
|-14---------------|-(14)----------------o||
|------------------|----------------------||
|------------------|----------------------||
|------------------|---------------------o||
|------------------|----------------------||
|
| W +W
|------------------|----------------------||
|-10---------------|-(10)----------------o||
|------------------|----------------------||
|------------------|----------------------||
|------------------|---------------------o||
|------------------|----------------------||
2.
Gtr V Gtr I Gtr V
TPTPTPTPTPTPTP TPTPTPTPTPTPTP
Q. Q E Q E E E E E E E E Q. Q E Q E E E E E E E E
|--------------|---xsxsxsxsxsxsx-|--------------|---xsxsxsxsxsxsx--||
|--------------|---xsxsxsxsxsxsx-|--------------|---xsxsxsxsxsxsx--||
|-6----4--4-6--|-----------------|-6----4--4-6--|------------------||
|-6----4--4-6--|-----------------|-6----4--4-6--|------------------||
|-4----2--2-4--|-----------------|-4----2--2-4--|------------------||
|--------------|-----------------|--------------|------------------||
|
| Gtr V Gtr II Gtr V
| TPTPTPTPTPTPTP TPTPTPTPTPTPTP
| Q. Q E Q E E E E E E E E Q. Q E Q E E E E E E E E
|--------------|---xsxsxsxsxsxsx-|--------------|---xsxsxsxsxsxsx--||
|--------------|---xsxsxsxsxsxsx-|--------------|---xsxsxsxsxsxsx--||
|-6----4--4-6--|-----------------|-6----4--4-6--|------------------||
|-6----4--4-6--|-----------------|-6----4--4-6--|------------------||
|-4----2--2-4--|-----------------|-4----2--2-4--|------------------||
|--------------|-----------------|--------------|------------------||
Interlude
N.C.
Gtr I
~~~~~~~~~~~~~~
E E E E E E E E E E E E E E E E Q H. +W
||------------------|-----------------|------------|--------|
||o-7-7-7-7-7-7-7-7-|-7-7-7-7-7-7-7-7-|-7----------|--------|
||------------------|-----------------|----8-------|-(8)----|
||------------------|-----------------|------------|--------|
||o-----------------|-----------------|------------|--------|
||------------------|-----------------|------------|--------|
|
| Gtr II
| ~~~~~~~~~~~~~~
| E E E E E E E E E E E E E E E E Q H. +W
||------------------|-----------------|------------|--------|
||o-4-4-4-4-4-4-4-4-|-4-4-4-4-4-4-4-4-|-4----------|--------|
||------------------|-----------------|----4-------|-(4)----|
||------------------|-----------------|------------|--------|
||o-----------------|-----------------|------------|--------|
||------------------|-----------------|------------|--------|
N.C.
~~~~~~~~~~~~~~~
E E E E E E E E E E E E E E E E W +H. Q
|-----------------|-----------------|----------|-------------|
|-6-6-6-6-6-6-6-6-|-6-6-6-6-6-7-6---|----------|-------------|
|-----------------|---------------8-|-7--------|-(7)------7--|
|-----------------|-----------------|----------|-------------|
|-----------------|-----------------|----------|-------------|
|-----------------|-----------------|----------|-------------|
|
| ~~~~~~~~~~~~~~~
| E E E E E E E E E E E E E E E E W +H. Q
|-----------------|-----------------|----------|-------------|
|-----------------|-----------4-----|----------|-------------|
|-4h6-6-6-6-6-6-6-|-6-6-6-6-6---6-4-|-3--------|-(3)------3--|
|-----------------|-----------------|----------|-------------|
|-----------------|-----------------|----------|-------------|
|-----------------|-----------------|----------|-------------|
N.C.
|-----------------|-----------------|-----------|-------------|
|-----------------|-----------------|-----------|-------------|
|-7S8-8-8-8-8-8-8-|-8-8-8-8-8-8-8-8-|-8---------|-------------|
|-----------------|-----------------|------9----|-12----13----|
|-----------------|-----------------|-----------|-------------|
|-----------------|-----------------|-----------|-------------|
|
| E E E E E E E E E E E E E E E E H H H H
|-----------------|-----------------|-----------|-------------|
|-----------------|-----------------|-----------|-------------|
|-3S4-4-4-4-4-4-4-|-4-4-4-4-4-4-4-4-|-4---------|-------------|
|-----------------|-----------------|------6----|--8-----9----|
|-----------------|-----------------|-----------|-------------|
|-----------------|-----------------|-----------|-------------|
N.C.
|--3--| |--3--|
|-------------------------|-------------------------------|
|-------------------------|----15h16p15----------15h16p15-|
|-------------------15h16p|=15----------15h16p15----------|
|-12h13p12-15h16p15-------|-------------------------------|
|-------------------------|-------------------------------|
|-------------------------|-------------------------------|
|
| |--3--| |--3--|
| E E E E E E E E E E E E E E E E E E
|-------------------------|-------------------------------|
|-------------------------|----11h12p11----------11h12p11-|
|-----------7h=8p=7-10h11p|=10----------10h11p10----------|
|--8h=9p=8----------------|-------------------------------|
|-------------------------|-------------------------------|
|-------------------------|-------------------------------|
Q. Q. Q +H H
|----------18tr19---22------|-(22)\-----------||
|-18tr19--------------------|----------------o||
|---------------------------|-----------------||
|---------------------------|-----------------||
|---------------------------|----------------o||
|---------------------------|-----------------||
|
| Q. Q. Q +H H
|-10tr11---13tr14---16b18===|=(16)r\----------||
|---------------------------|----------------o||
|---------------------------|-----------------||
|---------------------------|-----------------||
|---------------------------|----------------o||
|---------------------------|-----------------||
Guitar Solo
Gtr I
~~~ ~~~~
H. a +Q +Q Q +H
|-----------------------------|------------------------|
|-13------------13b16==(13)r==|=(13)---11---(11)-------|
|-----------------------------|------------------------|
|-----------------------------|------------------------|
|-----------------------------|------------------------|
|-----------------------------|------------------------|
|
| Gtr II
| PM---------------------------------------------------
| E E E E E E E E E E E E E E E E
|-----------------------------|------------------------|
|-----------------------------|------------------------|
|-----------------------------|------------------------|
|-----------------------------|------------------------|
|-----------------------------|------------------------|
|--8--8-8-8-8-8----------8--8-|---8--8--8-8---8--8-8-8-|
|
| Gtr VI
| W +W
|--8--------------------------|--(8)-------------------|
|--8--------------------------|--(8)-------------------|
|--8--------------------------|--(8)-------------------|
|-----------------------------|------------------------|
|-----------------------------|------------------------|
|-----------------------------|------------------------|
\3_________/
a +H. +E E H +Q E E
|-------------------------------|-----------------------|
|-13b16==(13)r==========(13)p11-|-13--------(13)--11p8--|
|-------------------------------|-----------------------|
|-------------------------------|-----------------------|
|-------------------------------|-----------------------|
|-------------------------------|-----------------------|
|
|----------------------------|
| E E E E E E E E Q. Q. Q
|-------------------------------|-----------------------|
|-------------------------------|-----------------------|
|-------------------------------|-----------------------|
|-------------------------------|-----------------------|
|-------------------------------|--6-----6---------8----|
|----------4--4-4-4-4-4---4---4-|--4-----4---------6----|
|
| W +W
|----------8--------------------|-(8)-------------------|
|----------9--------------------|-(9)-------------------|
|----------8--------------------|-(8)-------------------|
|-------------------------------|-----------------------|
|-------------------------------|-----------------------|
|-------------------------------|-----------------------|
\1/ \1/ \1/ \1/ \1/ \1/ \1/ \1/
Q Q Q Q Q Q Q Q
|--------------------------|--------------------------|
|-13----11-----9-----8-----|--------------------------|
|--------------------------|-10-----8-----7-----8-----|
|--------------------------|--------------------------|
|--------------------------|--------------------------|
|--------------------------|--------------------------|
|
| PM--------------------------------------------
| Q E E E E E E E E E E E E E E
|--------------------------|--------------------------|
|--------------------------|--------------------------|
|--------------------------|--------------------------|
|--------------------------|--------------------------|
|-10-----------------------|--------------------------|
|--8-----8---8-8---8-8---8-|--8---8-8---8-8---8-8---8-|
|
| W +W
|--8-----------------------|-(8)----------------------|
|--8-----------------------|-(8)----------------------|
|--8-----------------------|-(8)----------------------|
|--------------------------|--------------------------|
|--------------------------|--------------------------|
|--------------------------|--------------------------|
\1/ \1/ \1/ \1/ \1/
~~~~
Q Q Q Q H. E E
|---------------------------|---------------11--|
|--------8-----9-----11-----|-13----------------|
|-10------------------------|-------------------|
|---------------------------|-------------------|
|---------------------------|-------------------|
|---------------------------|-------------------|
|
|-------------------------|
| E E E E E E E E Q. Q. Q
|---------------------------|-------------------|
|---------------------------|-------------------|
|---------------------------|-------------------|
|---------------------------|-------------------|
|---------------------------|--6-----6----8-----|
|--4---4-4---4-4---4--4---4-|--4-----4----6-----|
|
| W +W
|--8------------------------|-(8)---------------|
|--9------------------------|-(9)---------------|
|--8------------------------|-(8)---------------|
|---------------------------|-------------------|
|---------------------------|-------------------|
|---------------------------|-------------------|
E E S S S S E E S S S S E E E E E E E E
|-15p11----------11h15p11----------11h|=15p=11-------15p11h15----|
|-------13----13----------13----13----|--------13-------------13-|
|----------12----------------12-------|-----------12-------------|
|-------------------------------------|--------------------------|
|-------------------------------------|--------------------------|
|-------------------------------------|--------------------------|
|
| PM-------------------------------------------------------
| Q E E E E E E E E E E E E E E
|-------------------------------------|--------------------------|
|-------------------------------------|--------------------------|
|-------------------------------------|--------------------------|
|-------------------------------------|--------------------------|
|-10----------------------------------|--------------------------|
|--8-----8-----8-----8--8--8-----8----|--8---8--8--8--8--8--8--8-|
|
| W +W
|--8----------------------------------|-(8)----------------------|
|--8----------------------------------|-(8)----------------------|
|--8----------------------------------|-(8)----------------------|
|-------------------------------------|--------------------------|
|-------------------------------------|--------------------------|
|-------------------------------------|--------------------------|
|---3---| |---3---| |---3---| |---3---| |--3---| |---3----|
E E E E E E E E E E E E E E E E E E Q Q
|-16p11---------------------------------------|-----------------------16---------|
|---------13-16p13--------------13h16p13------|--------13h16p13-----------/21----|
|--------------------13----13--------------13-|-----13-------------13------------|
|-----------------------13--------------------|-13-------------------------------|
|---------------------------------------------|----------------------------------|
|---------------------------------------------|----------------------------------|
|
|----------------------------------------|
| E E E E E E E E Q. Q. Q
|---------------------------------------------|----------------------------------|
|---------------------------------------------|----------------------------------|
|---------------------------------------------|----------------------------------|
|---------------------------------------------|----------------------------------|
|---------------------------------------------|--6--------------6-----------6----|
|--4----4-----4----4-----4----4-----4----4----|--4--------------4-----------4----|
|
| W +W
|--8------------------------------------------|-(8)------------------------------|
|--9------------------------------------------|-(9)------------------------------|
|--8------------------------------------------|-(8)------------------------------|
|---------------------------------------------|----------------------------------|
|---------------------------------------------|----------------------------------|
|---------------------------------------------|----------------------------------|
\1/ \1/ \1/
~~~
H H H H H +E E E E W
|---------------|-----------------|-15------(15)h16p15p13-|-15----------------||
|-13----15------|-16------13------|-----------------------|-------------------||
|---------------|-----------------|-----------------------|-------------------||
|---------------|-----------------|-----------------------|-------------------||
|---------------|-----------------|-----------------------|-------------------||
|---------------|-----------------|-----------------------|-------------------||
|
| PM| PM| PM| PM|
| W +W Q E E E E E E E E E E E E Q
|---------------|-----------------|-----------------------|-------------------||
|---------------|-----------------|-----------------------|-------------------||
|---------------|-----------------|-----------------------|-------------------||
|---------------|-----------------|-----5---------5-------|--5------5-----5---||
|--3------------|-(3)-------------|-----------------------|-------------------||
|--1------------|-(1)-------------|--3----3---3------3--3-|-----3-3---3-3-----||
|
| W +W W +W
|--8------------|-(8)-------------|--8--------------------|-(8)---------------||
|--9------------|-(9)-------------|--8--------------------|-(8)---------------||
|--8------------|-(8)-------------|--7--------------------|-(7)---------------||
|---------------|-----------------|-----------------------|-------------------||
|---------------|-----------------|-----------------------|-------------------||
|---------------|-----------------|-----------------------|-------------------||
Guitar Solo 2
Q +H. Q Q +Q. E
|-------------------------|-----------------------|
|-------------------------|-----------------------|
|-10b12====(10)h==========|=13p===10r==(10)-----8-|
|-------------------------|-----------------------|
|-------------------------|-----------------------|
|-------------------------|-----------------------|
|
| PM----------------------------------------------
| E E E E E E E E E E E E E E E E
|-------------------------|-----------------------|
|-------------------------|-----------------------|
|-------------------------|-----------------------|
|-------------------------|-----------------------|
|-------------------------|-----------------------|
|--8-----8---8--8-8-8-8-8-|--8--8--8-8---8--8-8-8-|
|
| W +W
|--8----------------------|-(8)-------------------|
|--8----------------------|-(8)-------------------|
|--8----------------------|-(8)-------------------|
|-------------------------|-----------------------|
|-------------------------|-----------------------|
|-------------------------|-----------------------|
~~~
a +H. +E E H +E +E +Q
|------------------------------|------------------------------|
|------------------------------|------------------------------|
|-10b12==(10)r==========(10)p8-|-10-------(10)b12==(10)r(10)--|
|------------------------------|------------------------------|
|------------------------------|------------------------------|
|------------------------------|------------------------------|
|
|----------------------------|
| E E E E E E E E Q. Q. Q
|------------------------------|------------------------------|
|------------------------------|------------------------------|
|------------------------------|------------------------------|
|------------------------------|------------------------------|
|------------------------------|--6----6------------------8---|
|----------4--4-4-4-4-4---4--4-|--4----4------------------6---|
|
| W +W
|----------8-------------------|-(8)--------------------------|
|----------9-------------------|-(9)--------------------------|
|----------8-------------------|-(8)--------------------------|
|------------------------------|------------------------------|
|------------------------------|------------------------------|
|------------------------------|------------------------------|
|--3--| |--3---| |---3---| |--3---|
E E E E E E E E E E E E S S S S S S S S +E E E E
|-10-10-10-11-10---8-10-10---10-11-10---8-|----------------------------------|
|-----------------------------------------|-11--11-9-9-11-9-8-8-(8)\---------|
|-----------------------------------------|--------------------------/8h10p8-|
|-----------------------------------------|----------------------------------|
|-----------------------------------------|----------------------------------|
|-----------------------------------------|----------------------------------|
|
| PM----------------------------------------------------------------
| Q E E E E E E E E E E E E E E
|-----------------------------------------|----------------------------------|
|-----------------------------------------|----------------------------------|
|-----------------------------------------|----------------------------------|
|-----------------------------------------|----------------------------------|
|-10--------------------------------------|----------------------------------|
|--8--------8----8----8----8-----8----8---|--8-----8----8---8----8----8--8-8-|
|
| W +W
|--8--------------------------------------|-(8)------------------------------|
|--8--------------------------------------|-(8)------------------------------|
|--8--------------------------------------|-(8)------------------------------|
|-----------------------------------------|----------------------------------|
|-----------------------------------------|----------------------------------|
|-----------------------------------------|----------------------------------|
~~~
a +H. +E E H +E E E E
|------------------------------|-----------------11p10---|
|------------------------------|-------------------------|
|-10b12==(10)r==========(10)p8-|-10-------(10)p8---------|
|------------------------------|-------------------------|
|------------------------------|-------------------------|
|------------------------------|-------------------------|
|
|----------------------------|
| E E E E E E E E Q. Q. Q
|------------------------------|-------------------------|
|------------------------------|-------------------------|
|------------------------------|-------------------------|
|------------------------------|-------------------------|
|------------------------------|--6----6----------8------|
|----------4--4-4-4-4-4---4--4-|--4----4----------6------|
|
| W +W
|----------8-------------------|-(8)---------------------|
|----------9-------------------|-(9)---------------------|
|----------8-------------------|-(8)---------------------|
|------------------------------|-------------------------|
|------------------------------|-------------------------|
|------------------------------|-------------------------|
|--3--| |---3---| |---3---| |---3---| |---3----| |---3---| |---3---| |---3---|
|-11-11-11-13-11---10-11-11---11-13-11---10-|-13--13---13-15-13---11-13-13---13-15-13---11-|
|-------------------------------------------|----------------------------------------------|
|-------------------------------------------|----------------------------------------------|
|-------------------------------------------|----------------------------------------------|
|-------------------------------------------|----------------------------------------------|
|-------------------------------------------|----------------------------------------------|
|
| PM------------------------------------------------------------------------------
| Q E E E E E E E E E E E E E E
|-------------------------------------------|----------------------------------------------|
|-------------------------------------------|----------------------------------------------|
|-------------------------------------------|----------------------------------------------|
|-------------------------------------------|----------------------------------------------|
|-10----------------------------------------|----------------------------------------------|
|--8--------8----8-----8----8-----8----8----|--8-----8-----8----8-----8----8-----8----8----|
|
| W +W
|--8----------------------------------------|-(8)------------------------------------------|
|--8----------------------------------------|-(8)------------------------------------------|
|--8----------------------------------------|-(8)------------------------------------------|
|-------------------------------------------|----------------------------------------------|
|-------------------------------------------|----------------------------------------------|
|-------------------------------------------|----------------------------------------------|
|---3---| |---3---| |---3---| |---3---|
|-15-15---15-16-15---13-15-15---15-16-15---13-|
|---------------------------------------------|
|---------------------------------------------|
|---------------------------------------------|
|---------------------------------------------|
|---------------------------------------------|
|
|----------------------------------------|
| E E E E E E E E
|---------------------------------------------|
|---------------------------------------------|
|---------------------------------------------|
|---------------------------------------------|
|---------------------------------------------|
|--4----4-----4----4-----4----4-----4----4----|
|
| W
|--8------------------------------------------|
|--9------------------------------------------|
|--8------------------------------------------|
|---------------------------------------------|
|---------------------------------------------|
|---------------------------------------------|
~~~~~
|--3--| |--3--| |--3--| |--3--|
H. E E E E E E E E E E E E E E
|-18b20--------15-15-|-16-16-16-18-16-15-15-15-15-16-15-13-|
|--------------------|-------------------------------------|
|--------------------|-------------------------------------|
|--------------------|-------------------------------------|
|--------------------|-------------------------------------|
|--------------------|-------------------------------------|
|
| Q. Q. Q W
|--------------------|-------------------------------------|
|--------------------|-------------------------------------|
|--------------------|-------------------------------------|
|--------------------|-------------------------------------|
|--6------6-----6----|-------------------------------------|
|--4------4-----4----|--1----------------------------------|
|
| W W
|--8-----------------|--8----------------------------------|
|--9-----------------|--9----------------------------------|
|--8-----------------|--8----------------------------------|
|--------------------|-------------------------------------|
|--------------------|-------------------------------------|
|--------------------|-------------------------------------|
|--3---| |--3--| |--3--| |--3--|
|-13--13-13-15-13-11-11-11-11-13-11-10-|
|--------------------------------------|
|--------------------------------------|
|--------------------------------------|
|--------------------------------------|
|--------------------------------------|
|
| +W
|--------------------------------------|
|--------------------------------------|
|--------------------------------------|
|--------------------------------------|
|--------------------------------------|
|-(1)----------------------------------|
|
| +W
|-(8)----------------------------------|
|-(9)----------------------------------|
|-(8)----------------------------------|
|--------------------------------------|
|--------------------------------------|
|--------------------------------------|
\4
a +H. +Q W
|-----------------------------|------------------|
|-11b13==(11)r=========(11)---|------------------|
|-----------------------------|--0---------------|
|-----------------------------|------------------|
|-----------------------------|------------------|
|-----------------------------|------------------|
|
| PM| PM-| PM| PM|
| Q E E E E E E E E E E E E Q
|-----------------------------|------------------|
|-----------------------------|------------------|
|-----------------------------|------------------|
|--------------5-----5--------|--5------5-----5--|
|-----------------------------|------------------|
|----------3-----3-3-----3--3-|-----3-3---3-3----|
|
| W +W
|----------8------------------|-(8)--------------|
|----------8------------------|-(8)--------------|
|----------7------------------|-(7)--------------|
|-----------------------------|------------------|
|-----------------------------|------------------|
|-----------------------------|------------------|
\4
a +W +H. Q
|--------------------------|---------------||
|-11b13==(11)r=============|=(11)----------||
|--------------------------|---------------||
|--------------------------|---------------||
|--------------------------|---------------||
|--------------------------|---------------||
|
| PM| PM| ~~~~
| Q E E E E E E H. Q
|--------------------------|---------------||
|--------------------------|---------------||
|--------------------------|---------------||
|--------------5-----5-----|---5-----------||
|--------------------------|---------------||
|----------3-----3-3---3-3-|---------------||
|
| +W +W
|---------(8)--------------|--(8)----------||
|---------(8)--------------|--(8)----------||
|---------(7)--------------|--(7)----------||
|--------------------------|---------------||
|--------------------------|---------------||
|--------------------------|---------------||
Interlude
Gtr I
Q E E E E E E E E E E E E E E
||------------------------|--------------------------|
||o-----13p10----11p10----|-15p=10----13p10----11p10-|
||--10--------10-------10-|--------10-------10-------|
||------------------------|--------------------------|
||o-----------------------|--------------------------|
||------------------------|--------------------------|
|
| Gtr II
| Q E E E E E E E E E E E E E E
||------------------------|--------------------------|
||o-----10p=6-----8p=6----|-11p==6----10p=6-----8p=6-|
||---7---------7--------7-|---------7--------7-------|
||------------------------|--------------------------|
||o-----------------------|--------------------------|
||------------------------|--------------------------|
|
| Gtr III
| W +W
||------------------------|--------------------------|
||o-----------------------|--------------------------|
||---7--------------------|-(7)----------------------|
||---7--------------------|-(7)----------------------|
||o--5--------------------|-(5)----------------------|
||------

Important: The song above is NOT stored on the Chordie server. The original song is hosted at www.guitaretab.com. Chordie works as a search engine and provides on-the-fly formatting. Chordie does not index songs against artists'/composers' will. To remove this song please click here.

Text color:
Chord color:
Chord grids: 
Font size:    
Page size: 

A5 B5 E5 F#5
Rate #1 of 4 versions

Jango Player

Login - add to songbook

SHARE PAGE  




You need to log in to post comments