Guitar Tabs, Chords and Lyrics
Server problems seems to be fixed. Chordie has been experiencing problems with songs disappearing. These issues now seems to be fixed, but still verifying the fix. If you find anything strange, please email admin@chordie.com.


The Chance  Helloween

Hi my name is Luis Vaquero and I've writte this song I hopefully be
well.
Is a beautiful song taken off "Pink Bubbles" album
For any corrections or comments mail to: HANSEN@DATALOGIC.ES
INTRO
[B] [A] [D] [E] [B] [G] [A] [B] [B] [A] [D] [E]  
 
 -----14-12---17-14---------/22-21-19-----19---|---14-12--17-14-------
 --12---------------15-12--------------22----19|-12-------------15-12-
 ----------------------------------------------|----------------------
 ----------------------------------------------|----------------------
 ----------------------------------------------|----------------------
 ----------------------------------------------|----------------------

|
|
 
 ----------------------------------------------|----------------------
 ----------------------------------------------|----------------------
 ---------------7-------9----------------------|-------------7------9-
 --9-----7------7-------9----9-----5---7-----9-|-9----7------7------9-
 --9-----7------5-------7----9-----5---7-----9-|-9----7------5------7-
 --7-----5-------------------7-----3---5-----7-|-7----5---------------

B G A B\ B artificial harmonics
 
 /22-21-19---19\-|----------------|----------------|----------------
 ----------22----|----------------|----------------|----------------
 ----------------|----------------|----------------|----------------
 ----------------|----------------|--------X\------|----------------
 ----------------|----------------|--------X\------|----------------
 ----------------|----------------|----------------|---------------- 

| | |
| | |
 
 ----------------|----------------|----------------|----------------
 ----------------|----------------|----------------|----------------
 ----------------|----------------|----------------|----------------
 -9-----5---7-9\-|----------------|----------------|----------------
 -9-----5---7-9\-|----------------|----------------|----------------
 -7-----3---5-7\-|5-7-7-7-7-7-7-7-|5-7-7-7-7-7-7-7-|5-7-7-7-7-7-7-7-

we are living in a constant... ...and all around
 
 -----------------------------------------|---------------------------
 -----------------------------------------|---------------------------
 -----------------------------------------|---------------------------
 -----------------------------------------|---------------------------
 -----------------------------------------|---------------------------
 -0-3-0-5-0-3-0-2-0-3-0-3-0-5-0-3-0-2-0-3-|-5-7-7-7-7-7-7-5-7-7-7-7-7- 

don't let it pull you down_______ hold on
 
 -----------------------------------------|----------------------------
 -----------------------------------------|----------------------------
 -----------------------------------------|----------------------------
 -----------------------------------------|----------------------------
 -----------------------------------------|----------------------------
 -0-3-0-5-0-3-0-2-0-3-0-3-0-5-0-3-0-2-0-3-|5-7-7-7-7-7-7-7-5-7-7-7-7-7-

tight___________ climg to your dreams_____________
BRIDGE
[G] [B]  
 
 ----------------------------------|-------------------------------|
 ----------------------------------|-------------------------------|
 ----------------------------------|-----4-------4-------4-------4-|
 -5-9-7-9-5-9-7-9-10-9-7-9-2-5-4-5-|-----4-------4-------4-------4-|
 ----------------------------------|-2-2-2---2-2-2---2-2-2---2-2-2-|
 ----------------------------------|-------------------------------|

DON'T YOU DEPEND...
[B] [G]  
 
 -------------------------------|----------------------------------
 -------------------------------|----------------------------------
 -----4-------4-------4-------4-|----------------------------------
 -----4-------4-------4-------4-|-5-9-7-9-5-9-7-9-10-9-7-9-2-5-4-5-
 -2-2-2---2-2-2---2-2-2---2-2-2-|----------------------------------
 -------------------------------|----------------------------------

THINK FOR YOURSELF...
E CHORUS
 
 ------------------------|---------------------------------|-------|
 ------------------------|---------------------------------|-------|
 ------------------------|---------------------------------|--0-/--|
 ----------------2-------|---------7---9-------------------|---/---|
 ----------------2-------|-9---7---5---7---9----5----7---9-|--/-0--|
 --0-0-0-0-0-0-0-0-------|-7---5-----------7----3----5---7-|-------|

THE CHANCE YOU GOT COMES NEVER...
[F]  
 
 -------------------------------------------|---------------------
 -------------------------------------------|---------------------
 -------------------------------------------|---------------------
 -------------------------------------------|---------------------
 -------------------------------------------|-3-3-----3-3-----3-3-
 -0-3-0-5-0-3-0-2-0-3-0-3-0-5-0-3-0-2-0-3-0-|-1-1-----1-1-----1-1-

REPEAT FROM THE BEGINNING UNTIL THE END OF THE 2ND CHORUS
SOLO
 
 ---------------------------------------------|-----------------------
 ---------------------------------------------|-----------------------
 ---------------------------------------------|-----------------------
 -4----2-----------7-----9---------4----------|-----------------------
 -2----0-----------5-----7---------2-----5--5-|-----------------------
 ----------------------------------------3--3-|-0---0-0---0-0-0---0-0-

TWICE
 
 -------------------------------|------------------------------------|
 -------------------------------|------------------------------------|
 -------------------------------|------------------------------------|
 -------------------------------|------------7----9------------------|
 -------------------------------|-9-----7----5----7---9----5----7--9-|
 -3-3-3-3-3-3-3-3-3-3-3-3-3-3-3-|-7-----5-------------7----3----5--7-|

PICK ONLY GUITAR ONCE
 
 -----------------------|------------------------------|
 -----------------------|------------------------------|
 -----------------------|------------------------------|
 --------------------X\-|---------7---9----------------|
 -3-3----3-3----3-3--X\-|-9---7---5---7--9---5----7--9-|
 -1-1----1-1----1-1-----|-7---5----------7---3----5--7-|
 -------------------------------|------------------------------------
 -------------------------------|------------------------------------
 -------------------------------|-----------------------9----11---11-
 ---------9--11-----------------|------11-----9--9----9----11---11---
 -11--9---7---9--11---7---9--11-|---11------9---9---7-----9----------
 --9--7-----------9---5---7---9-|-9-------7--------------------------

END-.
 
 -------------------------|-----------------------------------------|
 -------------------------|-----------------------------------------|
 -------------------------|-----------------------------------------|
 ------11------7-------9--|----------------------7-7---7-7---7-7-7\-|
 ---11-------7-------9----|3-3----3-3----3-3-----5-5---5-5---5-5-5\-|
 -9--------5-------7------|1-1----1-1----1-1------------------------|


Important: The song above is NOT stored on the Chordie server. The original song is hosted at www.guitaretab.com. Chordie works as a search engine and provides on-the-fly formatting. Chordie does not index songs against artists'/composers' will. To remove this song please click here.

Text color:
Chord color:
Chord grids: 
Font size:    
Page size: 

A B D E F G
Rate #1 of 3 versions

Jango Player

Login - add to songbook

SHARE PAGE  



You need to log in to post comments