Guitar Tabs, Chords and Lyrics
Server problems seems to be fixed. Chordie has been experiencing problems with songs disappearing. These issues now seems to be fixed, but still verifying the fix. If you find anything strange, please email admin@chordie.com.


Before the War  Helloween

As recorded by Helloween
(From the 1996 Album TIME OF THE OATH)
Transcribed by Ivan - (peekaboo104@hotmail.com)
Words and Music by Andi Deris, Michael Weikath, Roland Grapow, Markus Grosskopf and Uli Kush
[Bm]x x 9 7 7 7
[F/D]x x x 7 6 5
[F/C]x x x 5 6 5
[Bb]x x 8 7 6 6
[Gm]x x 5 3 3 3
[C5]x 3 5 5 x x
[E5]x 7 9 9 x x
Gtr I (E A D G B E) - 'Michael Weikath'
Gtr II (E A D G B E) - 'Roland Grapow'
Gtr III (E A D G B E) - 'Dist.'
Gtr IV (E A D G B E) - 'Acoustic'
Intro 1st Verse
Moderately Fast Rock Q=295
N.C. (D) (F) (E) (F) (D) (F)
[4/4] Gtrs I, II
 
 PM------------------------------------------------|

Wx34 E E E E E E E E E E E E E E E E E E E E E E E E
 
 |-------------||------------------|-----------------|-----------------|
 |-------------||o-----------------|-----------------|-----------------|
 |-------------||------------------|-----------------|-----------------|
 |-------------||------------------|-----------------|-----------------|
 |-------------||o-5-5-5-5-8-8-8-8-|-7-7-7-7-8-8-8-8-|-5-5-5-5-8-8-8-8-|
 |-------------||------------------|-----------------|-----------------|

[(E)] [(F)] [(Bb)] [(F)]  
 
 PM---------------------------------

[E] [E] [E] [E] [E] [E] [E] [E] [E] [E] [E] [E] [E] [E] [E] [E]  
 
 |-----------------|-----------------|
 |-----------------|-----------------|
 |-----------------|-----------------|
 |-----------------|-----------------|
 |-7-7-7-7-8-8-8-8-|---------8-8-8-8-|
 |-----------------|-6-6-6-6---------|

[(E)] [(F)] [(G)]  
 
 ----------------------------------------|

[E] [E] [E] [E] [E] [E] [E] [E] [E] [E] [E] [E] [E] [E] [E] [E]  
 
 |-----------------|-------------------------|
 |-----------------|-------------------------|
 |-----------------|-------------------------|
 |-----------------|-------------------------|
 |-7-7-7-7-8-8-8-8-|-10-10-10-10-10-10-10-10-|
 |-----------------|-------------------------|

Pre-Chorus
[C5] [F5] [Bm]Gtr IV
W H. Q W W
|
[/]  
 
 PM-------------------------------------------------|

Q H +Q E E E E E E E E E E E E E E E E E E E E E E E E
 
 |-------------------||------------------|-----------------|-----------------|
 |------------------o||------------------|-----------------|-----------------|
 |-----10----(10)\---||------------------|-----------------|-----------------|
 |-10--10----(10)\---||------------------|-----------------|-----------------|
 |-10---8-----(8)\--o||------------------|-----------------|-----------------|
 |--8----------------||-7--7-7-7-7-7-7-7-|-7-7-7-7-7-7-7-7-|-7-7-7-7-7-7-7-7-|

[B]W [F/D]H +E Q. W [F/C]H +E Q.
| | | |
[/] [/] [/] [/] 
 
 PM----------------------------------------------------------------------|

[E] [E] [E] [E] [E] [E] [E] [E] [E] [E] [E] [E] [E] [E] [E] [E] [E] [E] [E] [E] [E] [E] [E] [E] [E] [E] [E] [E] [E] [E] [E] [E]  
 
 |-----------------|-------------------|-----------------|-------------------|
 |-----------------|-------------------|-----------------|-------------------|
 |-----------------|-------------------|-----------------|-------------------|
 |-----------------|-------------------|-----------------|-------------------|
 |-----------------|-5-5-5-5--5-5--5-5-|-5-5-5-5-5-5-5-5-|-5-5-5-5--5-5--5-5-|
 |-7-7-7-7-7-7-7-7-|-------------------|-----------------|-------------------|

[D]W [Bb]H. Q W W
|
[/]  
 
 PM-------------------------------------------------------------------|

[E] [E] [E] [E] [E] [E] [E] [E] [E] [E] [E] [E] [E] [E] [E] [E] [E] [E] [E] [E] [E] [E] [E] [E] [E] [E] [E] [E] [E] [E] [E] [E]  
 
 |-----------------|------------------|-----------------|-----------------|
 |-----------------|------------------|-----------------|-----------------|
 |-----------------|------------------|-----------------|-----------------|
 |-----------------|------------------|-----------------|-----------------|
 |-5-5-5-5-5-5-5-5-|------------------|-----------------|-----------------|
 |-----------------|-6--6-6-6-6-6-6-6-|-6-6-6-6-6-6-6-6-|-6-6-6-6-6-6-6-6-|

Chorus
W [Gm]H. Q W [D5]W
|
[/]  
 
 PM------------|

E E E E E E E E Q Q Q Q Q Q Q Q W
 
 |-----------------|--------------|-------------||---------------------|
 |-----------------|--------------|-------------||---------------------|
 |-----------------|--------------|-------------||-7-------------------|
 |-----------------|--------------|-------------||-7-------------------|
 |-----------------|-5---5--5--5--|-5--5--5--3--||-5-------------------|
 |-6-6-6-6-6-6-6-6-|-3---3--3--3--|-3--3--------||---------------------|

|
| Gtr II
| W W W W
 
 |-----------------|--------------|-------------||---------------------|
 |-----------------|--------------|-------------||---------------------|
 |-----------------|--------------|-------------||-7-------------------|
 |-----------------|--------------|-------------||-7-------------------|
 |-----------------|--------------|-------------||-5-------------------|
 |-----------------|--------------|-------------||---------------------|

|
| Gtr III
 
 | PM---------------|

| W W W E E E E E E E E
 
 |-----------------|--------------|-------------||---------------------|
 |-----------------|--------------|-------------||---------------------|
 |-----------------|--------------|-------------||-7-7-10-10-9-9-10-10-|
 |-----------------|--------------|-------------||---------------------|
 |-----------------|--------------|-------------||---------------------|
 |-----------------|--------------|-------------||---------------------|

+W [A5]W
 
 |-----------------------|---------------------|
 |-----------------------|---------------------|
 |-(7)-------------------|---------------------|
 |-(7)-------------------|-7-------------------|
 |-(5)-------------------|-7-------------------|
 |-----------------------|-5-------------------|

|
| +W W
 
 |-----------------------|---------------------|
 |-----------------------|---------------------|
 |-(7)-------------------|---------------------|
 |-(7)-------------------|-7-------------------|
 |-(5)-------------------|-7-------------------|
 |-----------------------|-5-------------------|

|
 
 | PM------------------------------------------

| E E E E E E E E E E E E E E E E
 
 |-----------------------|---------------------|
 |-----------------------|---------------------|
 |--7--7-10-10-9-9-10-10-|---------------------|
 |-----------------------|-7-7-10-10-9-9-10-10-|
 |-----------------------|---------------------|
 |-----------------------|---------------------|

~~~[Bb5]
W W
 
 |-----------------------|-----------------------|
 |-----------------------|-----------------------|
 |-----------------------|-----------------------|
 |--8--------------------|-8---------------------|
 |-----------------------|-8---------------------|
 |-----------------------|-6---------------------|

|
| ~
| +W W
 
 |-----------------------|-----------------------|
 |-----------------------|-----------------------|
 |-----------------------|-----------------------|
 |-(7)-------------------|-----------------------|
 |-(7)-------------------|-4---------------------|
 |-(5)-------------------|-----------------------|

|
 
 |--------------------------------------------|

| E E E E E E E E E E E E E E E E
 
 |-----------------------|-----------------------|
 |-----------------------|-----------------------|
 |-----------------------|-----------------------|
 |--7--7-10-10-9-9-10-10-|-8-8-12-12-10-10-12-12-|
 |-----------------------|-----------------------|
 |-----------------------|-----------------------|

[C5] [D]  
 
 PM---------------|

W E E E E E E E E
 
 |------------------|---------------------|
 |------------------|---------------------|
 |------------------|---------------------|
 |-10---------------|---------------------|
 |-10---------------|-5-5--5--5-5-5--5--5-|
 |--8---------------|---------------------|

|
 
 | PM-------------------

| W E E E E E E E E
 
 |------------------|---------------------|
 |------------------|---------------------|
 |------------------|---------------------|
 |-10---------------|---------------------|
 |-10---------------|-5-5--5--5-5-5--5--5-|
 |--8---------------|---------------------|

|
 
 | PM-------------------------------------

| E E E E E E E E E E E E E E E E
 
 |------------------|---------------------|
 |------------------|---------------------|
 |--5-5-9-9-7-7-9-9-|-7-7-10-10-9-9-10-10-|
 |------------------|---------------------|
 |------------------|---------------------|
 |------------------|---------------------|

[Bb5]~
Q Q Q Q W
 
 |---------------------|-----------------------|
 |---------------------|-----------------------|
 |-7---------7----7----|-7---------------------|
 |------7--------------|-----------------------|
 |---------------------|-----------------------|
 |---------------------|-----------------------|

|
 
 |------------------|

| E E E E E E E E W
 
 |---------------------|-----------------------|
 |---------------------|-----------------------|
 |---------------------|-3---------------------|
 |---------------------|-3---------------------|
 |-5-5--0--0-5-5--0--0-|-1---------------------|
 |---------------------|-----------------------|

|
 
 |------------------------------------------|

| E E E E E E E E E E E E E E E E
 
 |---------------------|-----------------------|
 |---------------------|-----------------------|
 |-7-7-10-10-9-9-10-10-|-----------------------|
 |---------------------|-8-8-12-12-10-10-12-12-|
 |---------------------|-----------------------|
 |---------------------|-----------------------|

~~~ [A]PM----|
+W E E E E Q Q
 
 |-------------------------|---------------|
 |-------------------------|---------------|
 |-(7)---------------------|---------------|
 |-------------------------|---------------|
 |-------------------------|-0-0-0-0-0-----|
 |-------------------------|---------------|

|
| PM----|
| +W E E E E Q Q
 
 |-------------------------|---------------|
 |-------------------------|---------------|
 |-(3)---------------------|---------------|
 |-(3)---------------------|---------------|
 |-(1)---------------------|-0-0-0-0-0-----|
 |-------------------------|---------------|

|
 
 | PM------------------|

| E E E E E E E E W
 
 |-------------------------|---------------|
 |-------------------------|---------------|
 |-------------------------|---------------|
 |--8--8-12-12-10-10-12-12-|---------------|
 |-------------------------|---------------|
 |-------------------------|---------------|

W +H.. E
 
 |-----------------|--------------------|
 |-----------------|--------------------|
 |-----------------|--------------------|
 |-----------------|--------------------|
 |-0---------------|-(0)----------------|
 |-----------------|--------------------|

|
| W +H.. E
 
 |-----------------|--------------------|
 |-----------------|--------------------|
 |-----------------|--------------------|
 |-----------------|--------------------|
 |-0---------------|-(0)----------------|
 |-----------------|--------------------|

|
 
 | PM---------------------------------|

| E E E E E E E E E E E E E E E E
 
 |-----------------|--------------------|
 |-----------------|--------------------|
 |-----------------|--------------------|
 |-5-5-8-8-7-7-8-8-|--5---5-8-8-7-7-8-8-|
 |-----------------|--------------------|
 |-----------------|--------------------|

[D5]W +W
 
 |---------------------|-----------------------|
 |---------------------|-----------------------|
 |---------------------|-----------------------|
 |-7-------------------|-(7)-------------------|
 |-5-------------------|-(5)-------------------|
 |---------------------|-----------------------|

|
| W +W
 
 |---------------------|-----------------------|
 |---------------------|-----------------------|
 |-7-------------------|-(7)-------------------|
 |-7-------------------|-(7)-------------------|
 |-5-------------------|-(5)-------------------|
 |---------------------|-----------------------|

|
 
 |-PM--------------------|PM--------------------

| E E E E E E E E E E E E E E E E
 
 |---------------------|-----------------------|
 |-6-6-10-10-8-8-10-10-|--6--6-10-10-8-8-10-10-|
 |-7-7-10-10-9-9-10-10-|--7--7-10-10-9-9-10-10-|
 |---------------------|-----------------------|
 |---------------------|-----------------------|
 |---------------------|-----------------------|

[E] [E] [E] [E] [E] [E] [E] [E] [E] [E] [E] [E] [E] [E] [E] [E] 
[A5] ~~~
W W
 
 |---------------------|-----------------------|
 |---------------------|-----------------------|
 |---------------------|-----------------------|
 |---------------------|--7--------------------|
 |-7-------------------|-----------------------|
 |-5-------------------|-----------------------|

|
| W +W
 
 |---------------------|-----------------------|
 |---------------------|-----------------------|
 |---------------------|-----------------------|
 |-7-------------------|-(7)-------------------|
 |-7-------------------|-(7)-------------------|
 |-5-------------------|-(5)-------------------|

|
 
 |-PM--------------------|PM----------------|

| E E E E E E E E E E E E E E E E
 
 |---------------------|-----------------------|
 |---------------------|-----------------------|
 |-5-5--9--9-7-7--9--9-|--5--5--9--9-7-7--9--9-|
 |-7-7-10-10-9-9-10-10-|--7--7-10-10-9-9-10-10-|
 |---------------------|-----------------------|
 |---------------------|-----------------------|

[E] [E] [E] [E] [E] [E] [E] [E] [E] [E] [E] [E] [E] [E] [E] [E] 
[Bb5]W [C5] W
 
 |-----------------------|------------------|
 |-----------------------|------------------|
 |-----------------------|------------------|
 |-----------------------|------------------|
 |-8---------------------|-10---------------|
 |-6---------------------|--8---------------|

|
| W W
 
 |-----------------------|------------------|
 |-----------------------|------------------|
 |-----------------------|------------------|
 |-8---------------------|-10---------------|
 |-8---------------------|-10---------------|
 |-6---------------------|--8---------------|

|
 
 |-PM----------------------|PM---------------

| E E E E E E E E E E E E E E E E
 
 |-----------------------|------------------|
 |-----------------------|--5-5-8-8-6-6-8-8-|
 |-7-7-10-10--9--9-10-10-|--5-5-9-9-7-7-9-9-|
 |-8-8-12-12-10-10-12-12-|------------------|
 |-----------------------|------------------|
 |-----------------------|------------------|

[E] [E] [E] [E] [E] [E] [E] [E] [E] [E] [E] [E] [E] [E] [E] [E] 
[D5]W E E E E E E Q
 
 |---------------------|-------------------------|
 |---------------------|-------------------------|
 |-7-------------------|--7--7--7--7--7--7--7----|
 |-7-------------------|-------------------------|
 |-5-------------------|-------------------------|
 |---------------------|-------------------------|

|
 
 | PM---------------|

| E E E E E E E E E E E E E E E E
 
 |---------------------|-------------------------|
 |---------------------|-------------------------|
 |---------------------|-10-10-10-10-10-10-10-10-|
 |---------------------|-------------------------|
 |-5-5--5--5-5-5--5--5-|-------------------------|
 |---------------------|-------------------------|

|
 
 |-PM--------------------|PM------------------|

| E E E E E E E E E E E E E E E E
 
 |---------------------|-------------------------|
 |-6-6-10-10-8-8-10-10-|--6--6-10-10--8--8-10-10-|
 |-7-7-10-10-9-9-10-10-|--7--7-10-10--9--9-10-10-|
 |---------------------|-------------------------|
 |---------------------|-------------------------|
 |---------------------|-------------------------|

[E] [E] [E] [E] [E] [E] [E] [E] [E] [E] [E] [E] [E] [E] [E] [E] 
Gtrs I, II
~~~~~~~~~~~~~~~~~~~~~~~~~~~~
W +W
 
 |-----------------------|-------------------------|
 |-----------------------|-------------------------|
 |-7---------------------|-(7)---------------------|
 |-----------------------|-------------------------|
 |-----------------------|-------------------------|
 |-----------------------|-------------------------|

|
| Gtr III
 
 |-PM----------------------|PM----------------------

| E E E E E E E E E E E E E E E E
 
 |-----------------------|-------------------------|
 |-----------------------|-------------------------|
 |-7-7-10-10--9--9-10-10-|--7--7-10-10--9--9-10-10-|
 |-8-8-12-12-10-10-12-12-|--8--8-12-12-10-10-12-12-|
 |-----------------------|-------------------------|
 |-----------------------|-------------------------|

[E] [E] [E] [E] [E] [E] [E] [E] [E] [E] [E] [E] [E] [E] [E] [E] 
[A5]E E E E Q Q W
 
 |---------------|-----------------------|
 |---------------|-----------------------|
 |---------------|-----------------------|
 |-2-2-2-2-2-----|-----------------------|
 |-0-0-0-0-0-----|-0---------------------|
 |---------------|-----------------------|

|
 
 |-----------------PM-----------------|

| W E E E E E E E E
 
 |---------------|-----------------------|
 |---------------|-8-8-11-11-10-10-11-11-|
 |---------------|-----------------------|
 |---------------|-8-8-12-12-10-10-12-12-|
 |---------------|-----------------------|
 |---------------|-----------------------|

[E] [E] [E] [E] [E] [E] [E] [E] 
2nd Verse
[(D)]Gtrs I, [(F)]II
 
 PM---------------

+H.. E E E E E E E E E
 
 |--------------------------||------------------|
 |--------------------------||o-----------------|
 |--------------------------||------------------|
 |--------------------------||------------------|
 |-(0)----------------------||o-5-5-5-5-8-8-8-8-|
 |--------------------------||------------------|

|
 
 |-|PM-------------------|

| E E E E E E E E W
 
 |--------------------------||------------------|
 |--8---8-11-11-10-10-11-11-||o-----------------|
 |--------------------------||------------------|
 |--8---8-12-12-10-10-12-12-||------------------|
 |--------------------------||o-----------------|
 |--------------------------||------------------|

[E] [E] [E] [E] [E] [E] [E] [E]  
[(E)] [(F)] [(D)] [(F)]  
 
 ---------------------------------|

[E] [E] [E] [E] [E] [E] [E] [E] [E] [E] [E] [E] [E] [E] [E] [E]  
 
 |-----------------|-----------------|
 |-----------------|-----------------|
 |-----------------|-----------------|
 |-----------------|-----------------|
 |-7-7-7-7-8-8-8-8-|-5-5-5-5-8-8-8-8-|
 |-----------------|-----------------|

|
| W W
 
 |-----------------|-----------------|
 |-----------------|-----------------|
 |-----------------|-----------------|
 |-----------------|-----------------|
 |-----------------|-----------------|
 |-----------------|-----------------|

[(E)] [(F)] [(Bb)] [(F)]  
 
 PM---------------------------------

[E] [E] [E] [E] [E] [E] [E] [E] [E] [E] [E] [E] [E] [E] [E] [E]  
 
 |-----------------|-----------------|
 |-----------------|-----------------|
 |-----------------|-----------------|
 |-----------------|-----------------|
 |-7-7-7-7-8-8-8-8-|---------8-8-8-8-|
 |-----------------|-6-6-6-6---------|

[(E)] [(F)] [(G)]  
 
 ----------------------------------------|

[E] [E] [E] [E] [E] [E] [E] [E] [E] [E] [E] [E] [E] [E] [E] [E]  
 
 |-----------------|-------------------------|
 |-----------------|-------------------------|
 |-----------------|-------------------------|
 |-----------------|-------------------------|
 |-7-7-7-7-8-8-8-8-|-10-10-10-10-10-10-10-10-|
 |-----------------|-------------------------|

Pre-Chorus
[C5] [F5] [Bm]Gtr IV
W H. Q W W
|
[/]  
 
 PM-------------------------------------------------|

Q H +Q E E E E E E E E E E E E E E E E E E E E E E E E
 
 |-------------------||------------------|-----------------|-----------------|
 |------------------o||------------------|-----------------|-----------------|
 |-----10----(10)\---||------------------|-----------------|-----------------|
 |-10--10----(10)\---||------------------|-----------------|-----------------|
 |-10---8-----(8)\--o||------------------|-----------------|-----------------|
 |--8----------------||-7--7-7-7-7-7-7-7-|-7-7-7-7-7-7-7-7-|-7-7-7-7-7-7-7-7-|

W [F/D]H +E Q. W [F/C]H +E Q.
| | | |
[/] [/] [/] [/] 
 
 PM----------------------------------------------------------------------|

[E] [E] [E] [E] [E] [E] [E] [E] [E] [E] [E] [E] [E] [E] [E] [E] [E] [E] [E] [E] [E] [E] [E] [E] [E] [E] [E] [E] [E] [E] [E] [E]  
 
 |-----------------|-------------------|-----------------|-------------------|
 |-----------------|-------------------|-----------------|-------------------|
 |-----------------|-------------------|-----------------|-------------------|
 |-----------------|-------------------|-----------------|-------------------|
 |-----------------|-5-5-5-5--5-5--5-5-|-5-5-5-5-5-5-5-5-|-5-5-5-5--5-5--5-5-|
 |-7-7-7-7-7-7-7-7-|-------------------|-----------------|-------------------|

W [Bb]H. Q W W
|
[/]  
 
 PM-------------------------------------------------------------------|

[E] [E] [E] [E] [E] [E] [E] [E] [E] [E] [E] [E] [E] [E] [E] [E] [E] [E] [E] [E] [E] [E] [E] [E] [E] [E] [E] [E] [E] [E] [E] [E]  
 
 |-----------------|------------------|-----------------|-----------------|
 |-----------------|------------------|-----------------|-----------------|
 |-----------------|------------------|-----------------|-----------------|
 |-----------------|------------------|-----------------|-----------------|
 |-5-5-5-5-5-5-5-5-|------------------|-----------------|-----------------|
 |-----------------|-6--6-6-6-6-6-6-6-|-6-6-6-6-6-6-6-6-|-6-6-6-6-6-6-6-6-|

Chorus
W [Gm]H. Q W [D5]W
|
[/]  
 
 PM------------|

E E E E E E E E Q Q Q Q Q Q Q Q W
 
 |-----------------|--------------|-------------||---------------------|
 |-----------------|--------------|-------------||---------------------|
 |-----------------|--------------|-------------||-7-------------------|
 |-----------------|--------------|-------------||-7-------------------|
 |-----------------|-5---5--5--5--|-5--5--5--3--||-5-------------------|
 |-6-6-6-6-6-6-6-6-|-3---3--3--3--|-3--3--------||---------------------|

|
| Gtr II
| W W W W
 
 |-----------------|--------------|-------------||---------------------|
 |-----------------|--------------|-------------||---------------------|
 |-----------------|--------------|-------------||-7-------------------|
 |-----------------|--------------|-------------||-7-------------------|
 |-----------------|--------------|-------------||-5-------------------|
 |-----------------|--------------|-------------||---------------------|

|
| Gtr III
 
 | PM---------------|

| W W W E E E E E E E E
 
 |-----------------|--------------|-------------||---------------------|
 |-----------------|--------------|-------------||---------------------|
 |-----------------|--------------|-------------||-7-7-10-10-9-9-10-10-|
 |-----------------|--------------|-------------||---------------------|
 |-----------------|--------------|-------------||---------------------|
 |-----------------|--------------|-------------||---------------------|

+W [A5]W
 
 |-----------------------|---------------------|
 |-----------------------|---------------------|
 |-(7)-------------------|---------------------|
 |-(7)-------------------|-7-------------------|
 |-(5)-------------------|-7-------------------|
 |-----------------------|-5-------------------|

|
| +W W
 
 |-----------------------|---------------------|
 |-----------------------|---------------------|
 |-(7)-------------------|---------------------|
 |-(7)-------------------|-7-------------------|
 |-(5)-------------------|-7-------------------|
 |-----------------------|-5-------------------|

|
 
 | PM------------------------------------------

| E E E E E E E E E E E E E E E E
 
 |-----------------------|---------------------|
 |-----------------------|---------------------|
 |--7--7-10-10-9-9-10-10-|---------------------|
 |-----------------------|-7-7-10-10-9-9-10-10-|
 |-----------------------|---------------------|
 |-----------------------|---------------------|

~~~[Bb5]
W W
 
 |-----------------------|-----------------------|
 |-----------------------|-----------------------|
 |-----------------------|-----------------------|
 |--7--------------------|-8---------------------|
 |-----------------------|-8---------------------|
 |-----------------------|-6---------------------|

|
| +W W
 
 |-----------------------|-----------------------|
 |-----------------------|-----------------------|
 |-----------------------|-----------------------|
 |-(7)-------------------|-8---------------------|
 |-(7)-------------------|-8---------------------|
 |-(5)-------------------|-6---------------------|

|
 
 |--------------------------------------------|

| E E E E E E E E E E E E E E E E
 
 |-----------------------|-----------------------|
 |-----------------------|-----------------------|
 |-----------------------|-----------------------|
 |--7--7-10-10-9-9-10-10-|-8-8-12-12-10-10-12-12-|
 |-----------------------|-----------------------|
 |-----------------------|-----------------------|

[C5] [D]  
 
 PM---------------|

W E E E E E E E E
 
 |------------------|---------------------|
 |------------------|---------------------|
 |------------------|---------------------|
 |-10---------------|---------------------|
 |-10---------------|-5-5--5--5-5-5--5--5-|
 |--8---------------|---------------------|

|
 
 | PM-------------------

| W E E E E E E E E
 
 |------------------|---------------------|
 |------------------|---------------------|
 |------------------|---------------------|
 |-10---------------|---------------------|
 |-10---------------|-5-5--5--5-5-5--5--5-|
 |--8---------------|---------------------|

|
 
 | PM-------------------------------------

| E E E E E E E E E E E E E E E E
 
 |------------------|---------------------|
 |------------------|---------------------|
 |--5-5-9-9-7-7-9-9-|-7-7-10-10-9-9-10-10-|
 |------------------|---------------------|
 |------------------|---------------------|
 |------------------|---------------------|

[Bb5]~
Q Q Q Q W
 
 |---------------------|-----------------------|
 |---------------------|-----------------------|
 |-7---------7----7----|-7---------------------|
 |------7--------------|-----------------------|
 |---------------------|-----------------------|
 |---------------------|-----------------------|

|
 
 |------------------|

| E E E E E E E E W
 
 |---------------------|-----------------------|
 |---------------------|-----------------------|
 |---------------------|-3---------------------|
 |---------------------|-3---------------------|
 |-5-5--0--0-5-5--0--0-|-1---------------------|
 |---------------------|-----------------------|

|
 
 |------------------------------------------|

| E E E E E E E E E E E E E E E E
 
 |---------------------|-----------------------|
 |---------------------|-----------------------|
 |-7-7-10-10-9-9-10-10-|-----------------------|
 |---------------------|-8-8-12-12-10-10-12-12-|
 |---------------------|-----------------------|
 |---------------------|-----------------------|

~~~ [A]PM----|
+W E E E E Q Q
 
 |-------------------------|---------------|
 |-------------------------|---------------|
 |-(7)---------------------|---------------|
 |-------------------------|---------------|
 |-------------------------|-0-0-0-0-0-----|
 |-------------------------|---------------|

|
| PM----|
| +W E E E E Q Q
 
 |-------------------------|---------------|
 |-------------------------|---------------|
 |-(3)---------------------|---------------|
 |-(3)---------------------|---------------|
 |-(1)---------------------|-0-0-0-0-0-----|
 |-------------------------|---------------|

|
 
 | PM------------------|

| E E E E E E E E W
 
 |-------------------------|---------------|
 |-------------------------|---------------|
 |-------------------------|---------------|
 |--8--8-12-12-10-10-12-12-|---------------|
 |-------------------------|---------------|
 |-------------------------|---------------|

W +H.. E
 
 |-----------------|--------------------|
 |-----------------|--------------------|
 |-----------------|--------------------|
 |-----------------|--------------------|
 |-0---------------|-(0)----------------|
 |-----------------|--------------------|

|
| W +W
 
 |-----------------|--------------------|
 |-----------------|--------------------|
 |-----------------|--------------------|
 |-----------------|--------------------|
 |-0---------------|-(0)----------------|
 |-----------------|--------------------|

|
 
 | PM---------------------------------|

| E E E E E E E E E E E E E E E E
 
 |-----------------|--------------------|
 |-----------------|--------------------|
 |-----------------|--------------------|
 |-5-5-8-8-7-7-8-8-|--5---5-8-8-7-7-8-8-|
 |-----------------|--------------------|
 |-----------------|--------------------|

[D5]W +W
 
 |---------------------|-----------------------|
 |---------------------|-----------------------|
 |-7-------------------|-(7)-------------------|
 |-7-------------------|-(7)-------------------|
 |-5-------------------|-(5)-------------------|
 |---------------------|-----------------------|

|
| W +W
 
 |---------------------|-----------------------|
 |---------------------|-----------------------|
 |-7-------------------|-(7)-------------------|
 |-7-------------------|-(7)-------------------|
 |-5-------------------|-(5)-------------------|
 |---------------------|-----------------------|

|
 
 |-PM--------------------|PM--------------------

| E E E E E E E E E E E E E E E E
 
 |---------------------|-----------------------|
 |-6-6-10-10-8-8-10-10-|--6--6-10-10-8-8-10-10-|
 |-7-7-10-10-9-9-10-10-|--7--7-10-10-9-9-10-10-|
 |---------------------|-----------------------|
 |---------------------|-----------------------|
 |---------------------|-----------------------|

[E] [E] [E] [E] [E] [E] [E] [E] [E] [E] [E] [E] [E] [E] [E] [E] 
[A5] ~~~
W W
 
 |---------------------|-----------------------|
 |---------------------|-----------------------|
 |---------------------|-----------------------|
 |-7-------------------|--5--------------------|
 |-7-------------------|-----------------------|
 |-5-------------------|-----------------------|

|
| W +W
 
 |---------------------|-----------------------|
 |---------------------|-----------------------|
 |---------------------|-----------------------|
 |-7-------------------|-(7)-------------------|
 |-7-------------------|-(7)-------------------|
 |-5-------------------|-(5)-------------------|

|
 
 |-PM--------------------|PM----------------|

| E E E E E E E E E E E E E E E E
 
 |---------------------|-----------------------|
 |---------------------|-----------------------|
 |-5-5--9--9-7-7--9--9-|--5--5--9--9-7-7--9--9-|
 |-7-7-10-10-9-9-10-10-|--7--7-10-10-9-9-10-10-|
 |---------------------|-----------------------|
 |---------------------|-----------------------|

[E] [E] [E] [E] [E] [E] [E] [E] [E] [E] [E] [E] [E] [E] [E] [E] 
[Bb5]W [C5] W
 
 |-----------------------|------------------|
 |-----------------------|------------------|
 |-----------------------|------------------|
 |-8---------------------|-10---------------|
 |-8---------------------|-10---------------|
 |-6---------------------|--8---------------|

|
| W W
 
 |-----------------------|------------------|
 |-----------------------|------------------|
 |-----------------------|------------------|
 |-8---------------------|-10---------------|
 |-8---------------------|-10---------------|
 |-6---------------------|--8---------------|

|
 
 |-PM----------------------|PM---------------

| E E E E E E E E E E E E E E E E
 
 |-----------------------|------------------|
 |-----------------------|--5-5-8-8-6-6-8-8-|
 |-7-7-10-10--9--9-10-10-|--5-5-9-9-7-7-9-9-|
 |-8-8-12-12-10-10-12-12-|------------------|
 |-----------------------|------------------|
 |-----------------------|------------------|

[E] [E] [E] [E] [E] [E] [E] [E] [E] [E] [E] [E] [E] [E] [E] [E] 
[D5] ~~
W E E E E E E Q
 
 |---------------------|-------------------------|
 |---------------------|-------------------------|
 |-7-------------------|--7--7--7--7--7--7--7----|
 |-7-------------------|-------------------------|
 |-5-------------------|-------------------------|
 |---------------------|-------------------------|

|
 
 | PM---------------| ~~

| E E E E E E E E E E E E E E Q
 
 |---------------------|-------------------------|
 |---------------------|-------------------------|
 |---------------------|-10-10-10-10-10-10-10----|
 |---------------------|-------------------------|
 |-5-5--5--5-5-5--5--5-|-------------------------|
 |---------------------|-------------------------|

|
 
 |-PM--------------------|PM------------------|

| E E E E E E E E E E E E E E E E
 
 |---------------------|-------------------------|
 |-6-6-10-10-8-8-10-10-|--6--6-10-10--8--8-10-10-|
 |-7-7-10-10-9-9-10-10-|--7--7-10-10--9--9-10-10-|
 |---------------------|-------------------------|
 |---------------------|-------------------------|
 |---------------------|-------------------------|

[E] [E] [E] [E] [E] [E] [E] [E] [E] [E] [E] [E] [E] [E] [E] [E] 
~~~~~~~~~~~~~~~~~~~~~~~~~~~~
W +W
 
 |-----------------------|-------------------------|
 |-----------------------|-------------------------|
 |-7---------------------|-(7)---------------------|
 |-----------------------|-------------------------|
 |-----------------------|-------------------------|
 |-----------------------|-------------------------|

|
| ~~~~~~~~~~~~~~~~~~~~~~~~~~~~
| W +W
 
 |-----------------------|-------------------------|
 |-----------------------|-------------------------|
 |-7---------------------|-(7)---------------------|
 |-----------------------|-------------------------|
 |-----------------------|-------------------------|
 |-----------------------|-------------------------|

|
 
 |-PM----------------------|PM----------------------

| E E E E E E E E E E E E E E E E
 
 |-----------------------|-------------------------|
 |-----------------------|-------------------------|
 |-7-7-10-10--9--9-10-10-|--7--7-10-10--9--9-10-10-|
 |-8-8-12-12-10-10-12-12-|--8--8-12-12-10-10-12-12-|
 |-----------------------|-------------------------|
 |-----------------------|-------------------------|

[E] [E] [E] [E] [E] [E] [E] [E] [E] [E] [E] [E] [E] [E] [E] [E] 
[A5]PM----|
E E E E Q Q W
 
 |---------------|-----------------------||
 |---------------|-----------------------||
 |---------------|-----------------------||
 |-2-2-2-2-2-----|-----------------------||
 |-0-0-0-0-0-----|-0---------------------||
 |---------------|-----------------------||

|
| PM----|
| E E E E Q Q W
 
 |---------------|-----------------------||
 |---------------|-----------------------||
 |---------------|-----------------------||
 |-2-2-2-2-2-----|-----------------------||
 |-0-0-0-0-0-----|-0---------------------||
 |---------------|-----------------------||

|
 
 |-----------------PM-----------------|

| W E E E E E E E E
 
 |---------------|-----------------------||
 |---------------|-8-8-11-11-10-10-11-11-||
 |---------------|-----------------------||
 |---------------|-8-8-12-12-10-10-12-12-||
 |---------------|-----------------------||
 |---------------|-----------------------||

[E] [E] [E] [E] [E] [E] [E] [E] 
Interlude
[F#5] [E5] [F#5] [G5] [A5] [F#5] 
[2/4] Gtrs I, [4/4]II
 
 PM---------------------------| PM----|

Q Q Q Q Q Q E E E E Q Q Q Q E Q. E E E E Q Q
 
 |-------||-------------|---------------|--------------|----------------|
 |-------||-------------|---------------|--------------|----------------|
 |-------||-------------|---------------|--------------|----------------|
 |-------||-------------|---------------|--------------|----------------|
 |-4-----||----4-----2--|-4-4-4-4-4-----|----5----7----|-4-4-4-4-4------|
 |-2-----||----2-----0--|-2-2-2-2-2-----|----3----5----|-2-2-2-2-2------|

[E5] [A5] [Bm] [Cm] [C#m] [F#5]  
 
 PM-------| PM----|

Q Q Q Q W Q. Q. Q E E E E Q Q
 
 |-------------|----------|--------------|---------------|
 |-------------|----------|--------------|---------------|
 |-------------|----------|--------------|---------------|
 |-------------|-2--------|-0----1----2--|---------------|
 |----4-----2--|-0--------|-2----3----4--|-4-4-4-4-4-----|
 |----2-----0--|----------|--------------|-2-2-2-2-2-----|

Q. Q. Q
[E5] [F#5] [G5] [A5] [F#5]  
 
 PM------------------| PM----|

Q Q Q Q E E E E Q Q Q Q E Q. E E E E Q Q
 
 |-------------|---------------|--------------|---------------|
 |-------------|---------------|--------------|---------------|
 |-------------|---------------|--------------|---------------|
 |-------------|---------------|--------------|---------------|
 |----4-----2--|-4-4-4-4-4-----|----5----7----|-4-4-4-4-4-----|
 |----2-----0--|-2-2-2-2-2-----|----3----5----|-2-2-2-2-2-----|

PM-| [E5]PM[A5] [Bm] [Cm] [C#m] [Em] [Fm] [F#m] [Bm] [Cm] [C#m]
Q Q E Q. W Q. Q. Q Q. Q. Q Q. Q. Q
 
 |--------------|----------|--------------|--------------|--------------||
 |--------------|----------|--------------|--------------|-3----4----5--||
 |--------------|----------|--------------|-0----1----2--|-4----5----6--||
 |--------------|-7--------|-0----1----2--|-2----3----4--|--------------||
 |----4----2----|-7--------|-2----3----4--|--------------|--------------||
 |----2----0----|-5--------|--------------|--------------|--------------||

Q. Q. Q Q. Q. Q Q. Q. Q
1st Guitar Solo
N.C. B
Gtr II
 
 |-3-| |-3-| |-3-| |-3-|

[E] [E] [E] [E] [E] [E] [E] [E] [E] [E] [E] [E] [E] [E] [E] [E] [E] [E] [E] [E]  
 
 |-------------------------||-------------------|
 |-3h4p3h4p3h4p3h4p3h4p3h4-||o-7-0-0-8-0-0-10-0-|
 |-4h5p4h5p4h5p4h5p4h5p4h5-||-------------------|
 |-------------------------||-------------------|
 |-------------------------||o------------------|
 |-------------------------||-------------------|

| E E E E E E E E E E E E
 
 | |-3-| |-3-| |-3-| |-3-|

|
| Gtr I
| W E E E E E E E E
 
 |-------------------------||-------------------|
 |-------------------------||o-3-0-0-5-0-0--7-0-|
 |-------------------------||-------------------|
 |-------------------------||-------------------|
 |-------------------------||o------------------|
 |-------------------------||-------------------|

|
| Gtr III
 
 | PM----------------

| W E E E E E E E E
 
 |-------------------------||-------------------|
 |-------------------------||o------------------|
 |-------------------------||-------------------|
 |-------------------------||-------------------|
 |-------------------------||o------------------|
 |-------------------------||--7-7-7-7-7-7--7-7-|

[G]  
[E] [E] [E] [E] [E] [E] [E] [E] [E] [E] [E] [E] [E] [E] [E] [E]  
 
 |------------------|-7-0-0-9-0-0-10-0-|
 |-0-12-0-0-7-0-8-0-|------------------|
 |------------------|------------------|
 |------------------|------------------|
 |------------------|------------------|
 |------------------|------------------|

|
| E E E E E E E E E E E E E E E E
 
 |------------------|-3-0-0-5-0-0--7-0-|
 |-0--8-0-0-3-0-5-0-|------------------|
 |------------------|------------------|
 |------------------|------------------|
 |------------------|------------------|
 |------------------|------------------|

|
 
 |-----------------------------------|

| E E E E E E E E E E E E E E E E
 
 |------------------|------------------|
 |------------------|------------------|
 |------------------|------------------|
 |------------------|------------------|
 |------------------|------------------|
 |-7--7-7-7-7-7-7-7-|-3-3-3-3-3-3--3-3-|

[A] [B] [G] 
[E] [E] [E] [E] [E] [E] [E] [E] [E] [E] [E] [E] [E] [E] [E] [E] [E] [E] [E] [E] [E] [E] [E] [E] [E] [E] [E] [E] [E] [E] [E] [E]  
 
 |-14p0-12p0-10p0-12p0-|------------------|------------------|-7-0-0-9-0-0-10-0-|
 |---------------------|-7-0-0-8-0-0-10-0-|-0-12-0-0-7-0-8-0-|------------------|
 |---------------------|------------------|------------------|------------------|
 |---------------------|------------------|------------------|------------------|
 |---------------------|------------------|------------------|------------------|
 |---------------------|------------------|------------------|------------------|

|
| E E E E E E E E E E E E E E E E E E E E E E E E E E E E E E E E
 
 |-10p0--9p0--5p0--7p0-|------------------|------------------|-3-0-0-5-0-0--7-0-|
 |---------------------|-3-0-0-5-0-0--7-0-|-0--8-0-0-3-0-5-0-|------------------|
 |---------------------|------------------|------------------|------------------|
 |---------------------|------------------|------------------|------------------|
 |---------------------|------------------|------------------|------------------|
 |---------------------|------------------|------------------|------------------|

|
 
 | PM------------------------------------------------------------------------|

| E E E E E E E E E E E E E E E E E E E E E E E E E E E E E E E E
 
 |---------------------|------------------|------------------|------------------|
 |---------------------|------------------|------------------|------------------|
 |---------------------|------------------|------------------|------------------|
 |---------------------|------------------|------------------|------------------|
 |---------------------|------------------|------------------|------------------|
 |--5-5--5-5--5-5--5-5-|-7-7-7-7-7-7--7-7-|-7--7-7-7-7-7-7-7-|-3-3-3-3-3-3--3-3-|

[A] [B]  
[E] [E] [E] [E] [E] [E] [E] [E] [E] [E] [E] [E] [E] [E] [E] [E]  
 
 |-14p0-12p0-10p0-12p0-||---------------------|
 |---------------------||-15-0-0-14-0-0-15-14-|
 |---------------------||---------------------|
 |---------------------||---------------------|
 |---------------------||---------------------|
 |---------------------||---------------------|

|
| E E E E E E E E E E E E E E E E
 
 |-10p0--9p0--5p0--7p0-||---------------------|
 |---------------------||-12-0-0-10-0-0-12-10-|
 |---------------------||---------------------|
 |---------------------||---------------------|
 |---------------------||---------------------|
 |---------------------||---------------------|

|
 
 | PM-----------------------------------------

| E E E E E E E E E E E E E E E E

Important: The song above is NOT stored on the Chordie server. The original song is hosted at www.guitaretab.com. Chordie works as a search engine and provides on-the-fly formatting. Chordie does not index songs against artists'/composers' will. To remove this song please click here.

Text color:
Chord color:
Chord grids: 
Font size:    
Page size: 

A A5 B Bb Bb5 Bm C#m C5 Cm D D5 E E5 Em F#5 F#m F/C F/D F5 Fm G G5 Gm
Rate #2 of 3 versions

Login - add to songbook

SHARE PAGE  




You need to log in to post comments