Guitar Tabs, Chords and Lyrics
Major upgrade!! After one year development the new version of Chordie is now online! Please give feedback.


When the Sinner   Helloween

 
 e[-----------------------------*-----------------]
 B[-----------------------------*-----------------]
 G[-14/16-18------6x--14/16-18--*-------6-------6-]
 D[---------------6x------------*-//-//-6-//-//-6-]
 A[---------------4x------------*-//-//-4-//-//-4-]
 E[-----------------------------*-//-//---//-//---] 

 


 jemne


 


 

 
 e[-------------------------------------------------------------]
 B[-------------------------------------------------------------]
 G[-16/18-16--11/13-11-9-8---6---4/6-9-9/11/9/11/9--6-6-6-6-6-6-]
 D[--------------------------6----------------------6-6-6-6-6-6-]
 A[--------------------------4----------------------4-4-4-4-4-4-]
 E[-------------------------------------------------------------] 

 


 


 prechorus


 

 
 e[-----------------------*------------]
 B[-----------------------*------------]
 G[-2-2-----12-12-9-7-9-2-*-2-2--4-4-4-]
 D[-2-2--2--12-12-9-7-9-2-*-2-2--4-4-4-]
 A[-0-0--2--10-10-7-5-7-0-*-0-0--2-2-2-]
 E[------0----------------*------------] 

 


 


 CHORUS:


 

 
 e[--------------------]
 B[--------------------]
 G[---2------------4-2-]
 D[-2-2----2----2--4-2-]
 A[-2-0-2/4-----2--2-0-]
 E[-0-----------0------] 

 


 2:14


 

 
 e[--------------------------------------------]
 B[--------------------------------------------]
 G[-16x-16x-18--6-6-6-6-6-6---7/9-11-6-6-4/5/6-]
 D[-------------6-6-6-6-6-6--------------------]
 A[-------------4-4-4-4-4-4--------------------]
 E[--------------------------------------------] 

 


 3:35


 

 
 e[-----------------------------------]
 B[-----------------------------------]
 G[---2-4---2-4---2-4---2-2-4-4--/9//-]
 D[-2-2-4---2-4-2-2-4---2-2-4-4--/9//-]
 A[-2-0-2---0-2-2-0-2---0-0-2-2--/7//-]
 E[-0-----------0---------------------]
 e[----------------------------------------------------------------------------------------]
 B[----------------------------------------------------------------------------------------]
 G[----------------------------------7/9---------------------------------------------------]
 D[--14/16/14--16-14-11--9/11-11-11-9----11------9---------2/4/2---------------------------]
 A[-----------------------------------------9/11--/11-9-7--------4/2-4--//----2---------2--]
 E[---------------------------------------------------------------------//--/4---4-2-2/4---]
 e[----------------------------------------------------------------------]
 B[----------------------------------------------------------------------]
 G[-8/10-8-6/8--6/8-8-8-/9-9-9-/11-11-11---sorry I don´t have enought...-]
 D[----------------------------------------------------------------------]
 A[----------------------------------------------------------------------]
 E[----------------------------------------------------------------------] 

 


 


 END: (I love this)


 

 
 e[-----------------------*---------*-----------]
 B[-----------------------*---------*-----------]
 G[-----------------------*---------*-----------]
 D[-----11--11---------13-*14/13/11-*-/16/14/13-]
 A[--/12--12--12--12/14---*---------*-----------]
 E[-----------------------*---------*-----------] 


Important: The song above is NOT stored on the Chordie server. The original song is hosted at www.guitaretab.com. Chordie works as a search engine and provides on-the-fly formatting. Chordie does not index songs against artists'/composers' will. To remove this song please click here.

This song is displayed as text-only. Transposing and tuning is only available for chordpro-songs.
Rate #0 of 3 versions

Login - add to songbook

SHARE PAGE  




You need to log in to post comments