Guitar Tabs, Chords and Lyrics
Server problems seems to be fixed. Chordie has been experiencing problems with songs disappearing. These issues now seems to be fixed, but still verifying the fix. If you find anything strange, please email admin@chordie.com.


Dr. Stein  Helloween

DR. STEIN
As recorded by Helloween
(From the 1988 Album KEEPER OF THE SEVEN KEYS PT. 2)
Transcribed by Asmogriff (ComfortablyDumb)
Words and Music by Michael Weikath
Gtr I (E A D G B E) - 'Dist 1'
Gtr II (E A D G B E) - 'Dist 2'
Gtr III (E A D G B E) - 'Piano'
Gtr IV (E A D G B E) - 'Overdriven'
Gtr V (E A D G B E) - 'Organ'
Intro
Q=150
N.C.
[4/4] Gtrs I, II
Wx15
 
 |---------|
 |---------|
 |---------|
 |---------|
 |---------|
 |---------|

1.
N.C. G5CD
[4/4]  
 
 PM--------| PM--------|

S +S E E E E E E E S +S E E E E E E E E E E E E E E E
 
 ||------------------------|-----------------------|-----------------|
 ||o-----------------------|-----------------------|-----------------|
 ||------------------------|-----------------------|-----------------|
 ||--4b5-(4)-2-2-2-2-2-2-2-|-----------------------|-------------5-7-|
 ||o-----------------------|-4b5-(4)-2-2-2-2-2-2-2-|-3p2-3p2-3p2-5-6-|
 ||------------------------|-----------------------|-----------------|

2.
[E5] [D5]  
 
 PM----------| PM----|

[E] [E] [E] [E] [E] [E] [E] [E] [E] [E] [E] [E] [E] [E] [E] [E] [E] [E] [E] [E] [B]  
 
 |------------------||-----------------|--------------||
 |-----------------o||-----------------|--------------||
 |------------------||-----------------|---------7----||
 |-9----------------||-----------------|---------7----||
 |-7---------------o||-3p2-3p2-3p2-----|---------5----||
 |---0-0-0-0-0-0-0--||-------------3-2-|-0-0-0-0------||

Verse
1.
$
N.C. G5CD
 
 PM--------| PM--------|

S +S E E E E E E E S +S E E E E E E E E E E E E E E E
 
 ||------------------------|-----------------------|-----------------|
 ||o-----------------------|-----------------------|-----------------|
 ||------------------------|-----------------------|-----------------|
 ||--4b5-(4)-2-2-2-2-2-2-2-|-----------------------|-------------5-7-|
 ||o-----------------------|-4b5-(4)-2-2-2-2-2-2-2-|-3p2-3p2-3p2-5-6-|
 ||------------------------|-----------------------|-----------------|

|
| Gtr III
| W W W
 
 ||------------------------|-----------------------|-----------------|
 ||o-----------------------|-----------------------|-----------------|
 ||------------------------|-----------------------|-----------------|
 ||------------------------|-----------------------|-----------------|
 ||o-----------------------|-----------------------|-----------------|
 ||------------------------|-----------------------|-----------------|

2.
[E5] [D5]  
 
 PM----------| PM---------|

[E] [E] [E] [E] [E] [E] [E] [E] [E] [E] [E] [E] [E] [E] [E] [E] [E] [E] [E] [E] [B]  
 
 |------------------||-----------------|-----------------------------||
 |-----------------o||-----------------|-----------------------------||
 |------------------||-----------------|----------------7------------||
 |-9----------------||-----------------|----------------7------------||
 |-7---------------o||-3p2-3p2-3p2-----|----------------5------------||
 |---0-0-0-0-0-0-0--||-------------3-2-|-0-----0--0--0---------------||

|
| W W E a E E E E E E E
 
 |------------------||-----------------|-----------------------------||
 |-----------------o||-----------------|-----------------------------||
 |------------------||-----------------|-----------------------------||
 |------------------||-----------------|---12h14-12------------------||
 |-----------------o||-----------------|------------15-14-12---------||
 |------------------||-----------------|---------------------15-14---||

Pre-Chorus
$$
W
||--------------------------------------------------|
||o-------------------------------------------------|
||--------------------------------------------------|
||---9----------------------------------------------|
||o--9----------------------------------------------|
||---7----------------------------------------------|
|
| S S S S S S S S S S S S S S S S
||--------------------------------------------------|
||o----------12-16-12----------------12-16-12-------|
||--------------------------------------------------|
||-----13-16----------16-13----13-16----------16-13-|
||o-14----------------------14----------------------|
||--------------------------------------------------|
W
|--------------------------------------------------|
|--------------------------------------------------|
|--9-----------------------------------------------|
|--9-----------------------------------------------|
|--7-----------------------------------------------|
|--------------------------------------------------|
|
| S S S S S S S S S S S S S S S S
|-------------12----------------------12-----------|
|----------12----12----------------12----12--------|
|-------12----------12----------12----------12-----|
|----14----------------14----14----------------14--|
|-14----------------------14-----------------------|
|--------------------------------------------------|
W
|-------------------------------------------------|
|-------------------------------------------------|
|--7----------------------------------------------|
|--7----------------------------------------------|
|--5----------------------------------------------|
|-------------------------------------------------|
|
| S S S S S S S S S S S S S S S S
|-------------14----------------------14----------|
|----------15----15----------------15----15-------|
|-------14----------14----------14----------14----|
|-12-16----------------16-12-16----------------16-|
|-------------------------------------------------|
|-------------------------------------------------|
W
|-------------------------------------------------|
|-------------------------------------------------|
|-------------------------------------------------|
|--5----------------------------------------------|
|--5----------------------------------------------|
|--3----------------------------------------------|
|
| S S S S S S S S S S S S S S S S
|-------------15----------------------15----------|
|-------12-15----15-12----------12-15----15-12----|
|----12----------------12----12----------------12-|
|-12----------------------12----------------------|
|-------------------------------------------------|
|-------------------------------------------------|
1.
W
|-------------------------------------------------|
|-------------------------------------------------|
|--5----------------------------------------------|
|--5----------------------------------------------|
|--3----------------------------------------------|
|-------------------------------------------------|
|
| S S S S S S S S S S S S S S S S
|----------12-15-12----------------12-15-12-------|
|-------13----------13----------13----------13----|
|----12----------------12----12----------------12-|
|-14----------------------14----------------------|
|-------------------------------------------------|
|-------------------------------------------------|
W
|-------------------------------------------------|
|-------------------------------------------------|
|-------------------------------------------------|
|--5----------------------------------------------|
|--5----------------------------------------------|
|--3----------------------------------------------|
|
| S S S S S S S S S S S S S S S S
|-------------15----------------------15----------|
|-------12-15----15-------------12-15----15-------|
|----12-------------12-------12-------------12----|
|-12-------------------12-12-------------------12-|
|-------------------------------------------------|
|-------------------------------------------------|
Gtr I
W
|-------------------------------------------------|
|-------------------------------------------------|
|--7----------------------------------------------|
|--7----------------------------------------------|
|--5----------------------------------------------|
|-------------------------------------------------|
|
| Gtr II
| W
|-------------------------------------------------|
|-------------------------------------------------|
|--7----------------------------------------------|
|--7----------------------------------------------|
|--5----------------------------------------------|
|-------------------------------------------------|
|
| Gtr III
| S S S S S S S S S S S S S S S S
|-------------14----------------------14----------|
|----------15----15----------------15----15-------|
|-------14----------14----------14----------14----|
|-12-16----------------16-12-16----------------16-|
|-------------------------------------------------|
|-------------------------------------------------|
Q Q Q Q
|--------------------------------------------------||
|-------------------------------------------------o||
|--------------------------------------------------||
|--------------------------4-----------7-----------||
|--5-----------7----------------------------------o||
|--------------------------------------------------||
|
| Q Q Q Q
|--------------------------------------------------||
|-------------------------------------------------o||
|--------------------------------------7-----------||
|--------------------------7-----------------------||
|--9----------10----------------------------------o||
|--------------------------------------------------||
|
| S S S S S S S S S S S S S S S S
|-------------14----------------------14-----------||
|----------15----15----------------15----15-------o||
|-------14----------14----------14----------14-----||
|-12-16----------------16-12-16----------------16--||
|-------------------------------------------------o||
|--------------------------------------------------||
2.
To Coda
W W W Q Q Q Q
|----------|----------|----------|-------------||
|----------|----------|----------|-------------||
|-5--------|-7--------|----------|-------------||
|-5--------|-7--------|-5--------|-------------||
|-3--------|-5--------|-5--------|----------5--||
|----------|----------|-3--------|-3--2--0-----||
|
| W W W Q Q Q Q
|----------|----------|----------|-------------||
|----------|----------|----------|-------------||
|-5--------|-7--------|----------|-4--2--------||
|-5--------|-7--------|-5--------|-------5--4--||
|-3--------|-5--------|-5--------|-------------||
|----------|----------|-3--------|-------------||
Chorus
H H Q Q Q Q H H Q Q H
|-----------|------------------|-----------|----------------|
|-----------|-10b12--10--8--7--|-----------|-8--10b12--8----|
|-5----7----|------------------|-5----7----|----------------|
|-5----7----|------------------|-5----7----|----------------|
|-3----5----|------------------|-3----5----|----------------|
|-----------|------------------|-----------|----------------|
|
| ~~
| H H Q Q Q Q H H Q Q H
|-----------|------------------|-----------|----------------|
|-----------|--7b8----7--5-----|-----------|----------------|
|-5----7----|--4------2-----7--|-5----7----|----------------|
|-5----7----|------------5--4--|-5----7----|----------------|
|-3----5----|------------------|-3----5----|-2---3b5---2----|
|-----------|------------------|-----------|----------------|
Q Q Q Q
To Dbl. Coda
H H Q Q Q Q W W
|-----------|------------------|----------|-------||
|-----------|-10b12--10--8--7--|----------|-------||
|-5----7----|------------------|-5--------|-7-----||
|-5----7----|------------------|-5--------|-7-----||
|-3----5----|------------------|-3--------|-5-----||
|-----------|------------------|----------|-------||
|
| ~~
| H H Q Q Q Q W W
|-----------|------------------|----------|-------||
|-----------|--7b8----7--5-----|----------|-------||
|-5----7----|--4------2-----7--|-5--------|-7-----||
|-5----7----|------------5--4--|-5--------|-7-----||
|-3----5----|------------------|-3--------|-5-----||
|-----------|------------------|----------|-------||
Q Q Q Q
Bridge
Gtrs I, II
PM--------|
E E E S S E S S E E +E E E S S H
||----------------------|------------------|
||o---------------------|------------------|
||--9-7-9-------------9-|-(9)-7-9-x-x-7----|
||--9-7-9-------------9-|-(9)-7-9-x-x-7----|
||o-7-5-7-------------7-|-(7)-5-7-x-x-5----|
||--------0-0-0-0-0-0---|------------------|
D.S. al Coda
PM--------|
E E E S S E S S E E +E E Q H
|---------------------|----------------||
|---------------------|---------------o||
|-9-7-9---------------|----------7-----||
|-9-7-9---------------|----------7-----||
|-7-5-7---------------|----------5----o||
|-------0-0-0-0-0-0-3-|-(3)-2-0--------||
Chorus
&
Gtr I
H H Q Q Q Q H H Q Q H
|-----------|------------------|-----------|----------------|
|-----------|-10b12--10--8--7--|-----------|-8--10b12--8----|
|-5----7----|------------------|-5----7----|----------------|
|-5----7----|------------------|-5----7----|----------------|
|-3----5----|------------------|-3----5----|----------------|
|-----------|------------------|-----------|----------------|
|
| Gtr II
| ~~
| H H Q Q Q Q H H Q Q H
|-----------|------------------|-----------|----------------|
|-----------|--7b8----7--5-----|-----------|----------------|
|-5----7----|--4------2-----7--|-5----7----|----------------|
|-5----7----|------------5--4--|-5----7----|----------------|
|-3----5----|------------------|-3----5----|-2---3b5---2----|
|-----------|------------------|-----------|----------------|
Q Q Q Q
H H Q Q Q Q W W
|-----------|------------------|----------|------||
|-----------|-10b12--10--8--7--|----------|------||
|-5----7----|------------------|-5--------|-7----||
|-5----7----|------------------|-5--------|-7----||
|-3----5----|------------------|-3--------|-5----||
|-----------|------------------|----------|------||
|
| ~~
| H H Q Q Q Q W W
|-----------|------------------|----------|------||
|-----------|--7b8----7--5-----|----------|------||
|-5----7----|--4------2-----7--|-5--------|-7----||
|-5----7----|------------5--4--|-5--------|-7----||
|-3----5----|------------------|-3--------|-5----||
|-----------|------------------|----------|------||
Q Q Q Q
First Guitar Solos
N.C.
PM----------------------------------------------|
E S S E S S E S S E S S E S S E S S E S S E S S
|-------------------------|-------------------------|
|-------------------------|-------------------------|
|-------------------------|-------------------------|
|-------------------------|-------------------------|
|-------------------------|-------------------------|
|-0-0-0-0-0-0-0-0-0-0-0-0-|-0-0-0-0-0-0-0-0-0-0-0-0-|
|
| PM----------------------------------------------|
| E S S E S S E S S E S S E S S E S S E S S E S S
|-------------------------|-------------------------|
|-------------------------|-------------------------|
|-------------------------|-------------------------|
|-------------------------|-------------------------|
|-------------------------|-------------------------|
|-0-0-0-0-0-0-0-0-0-0-0-0-|-0-0-0-0-0-0-0-0-0-0-0-0-|
|
| Gtr IV
| W W
|-------------------------|-------------------------|
|-------------------------|-------------------------|
|-------------------------|-------------------------|
|-------------------------|-------------------------|
|-------------------------|-------------------------|
|-------------------------|-------------------------|
D5 A/C# D5 A/C# D5 Eb5
|-------------------|----------------------|
|-------------------|----------------------|
|------7------7-----|--7-------7---7----8--|
|----7------7-----7-|--------7-------------|
|-5------4------5---|-----4------5---6-----|
|-------------------|----------------------|
|
| Q. Q. Q +E Q. Q Q
|-------------------|----------------------|
|-------------------|----------------------|
|-------------------|----------------------|
|-7------7------7---|-(7)-7------7---8-----|
|-5------4------5---|-(5)-4------5---6-----|
|-------------------|----------------------|
|
| W H Q E E
|-------------------|----------------------|
|-------------------|----------------------|
|-------------------|----------------------|
|-------------------|------------------14--|
|-------------------|----------------------|
|-------------------|----------------------|
N.C.
Gtr IV
~~~~~
|--3--|
H. S S E H +Q S S S S S
|---------------------------------|---------------------------14h15p14-------|
|-15------------------------------|-15b17-----------(15)\--------------17-15-|
|-14b16==================14r14p12-|------------------------------------------|
|---------------------------------|------------------------------------------|
|---------------------------------|------------------------------------------|
|---------------------------------|------------------------------------------|
|
| Gtrs I, II
| PM---------------------------------------------------------------------|
| E S S E S S E S S E E E S S E S S E S S E S S
|---------------------------------|------------------------------------------|
|---------------------------------|------------------------------------------|
|---------------------------------|------------------------------------------|
|---------------------------------|------------------------------------------|
|---------------------------------|------------------------------------------|
|--0-----0-0-0-0-0-0-0-0--0-----0-|--7----7-7-7-7-7---7---7-7--7--------7--7-|
N.C.
|--3--| |--3--| |--3--| |---3---|
S S S S S S S S S S S S S S S S S S S S
|-14h15p14----15-14h15p14----15-14h15p14------------------------|
|----------17-------------17-------------17-15-17-15-13h15p==13-|
|---------------------------------------------------------------|
|---------------------------------------------------------------|
|---------------------------------------------------------------|
|---------------------------------------------------------------|
|
| PM------------------------------------------------------------
| E S S E S S E S S E S S
|---------------------------------------------------------------|
|---------------------------------------------------------------|
|---------------------------------------------------------------|
|---------------------------------------------------------------|
|---------------------------------------------------------------|
|--7--------7--7--7--------7--7--7--------7--7--7-----7----7----|
S S S S S S S S S S S S e E
|--------------------------------------------------|
|-12-13-12-----------------------------------------|
|----------14-12-14-11h12----------------14b16-----|
|-------------------------14-14-12----14-----------|
|----------------------------------14--------------|
|--------------------------------------------------|
|
|----------------------------------------------|
| E S S E S S E S S E S S
|--------------------------------------------------|
|--------------------------------------------------|
|--------------------------------------------------|
|--------------------------------------------------|
|--------------------------------------------------|
|--7-----7--7--7-----7--7--7-----7--7--7--7----7---|
Bm Bbm Am G N.C.
+Q Q Q E S S E S S Q E S S S S E
|-------------------------------||---------------------------|
|-------------------------------||-----------------14p12-----|
|-(14)--14b16--14b16===14r14p12-||-------12---------------12-|
|-------------------------------||-x-x-x-12--x-x-x-----------|
|-------------------------------||-x-x-x-----x-x-x-----------|
|-------------------------------||-x-x-x-----x-x-x-----------|
|
| PM--| PM--|
| Q Q Q Q E S S Q E S S S E.
|-------------------------------||---------------------------|
|-------------------------------||---------------------------|
|-------------------------------||---------------------------|
|-------------------------------||---------------------------|
|---5----4------3-------2-------||--------7---------5h=7-----|
|---7----6------5-------3-------||-0-0-0-----0-0-0-----------|
Q Q Q Q
E S S Q S S S S S S S S
|-----------14-14-14p12----12--------|
|-------12--------------15-----15p13-|
|-------12---------------------------|
|-x-x-x------------------------------|
|-x-x-x------------------------------|
|-x-x-x------------------------------|
|
| PM--| PM------|
| E S S Q E S S S E.
|------------------------------------|
|------------------------------------|
|------------------------------------|
|------------------------------------|
|--------7---------------5h=7--------|
|-0-0-0------0-----0--0--------------|
N.C.
S S S S S S S S S S S S S S S S
|-------------------------------------------------|
|-15-13-12-------14-------------------------------|
|----------13-13----12----12h14p12----11----------|
|----------------------14----------14----14p12----|
|----------------------------------------------14-|
|-------------------------------------------------|
|
| Gtr I
| PM------| PM------|
| E S S Q E S S S E.
|-------------------------------------------------|
|-------------------------------------------------|
|-------------------------------------------------|
|-------------------------------------------------|
|--------------7-----------------------5h=7-------|
|--0-----0--0--------------0-----0--0-------------|
|
| Gtr II
| PM------| PM------|
| E S S Q E S S S E.
|-------------------------------------------------|
|-------------------------------------------------|
|-------------------------------------------------|
|-------------------------------------------------|
|--------------7-----------------------5h=7-------|
|--0-----0--0--------------0-----0--0-------------|
|-3--|
S S S S S S S S S H
|-----------------------------------||
|-----------------------------------||
|-----------------------------------||
|-------------------------9---------||
|-12-14p12S10-12p10-10-12---12\-----||
|-----------------------------------||
|
| Q Q Q Q
|-----------------------------------||
|-----------------------------------||
|-----------------------------------||
|-----------------------------------||
|--------------2-------------3---4--||
|--3--------------------------------||
|
| Q Q Q Q
|-----------------------------------||
|-----------------------------------||
|-----------------------------------||
|-----------------------------------||
|-----------------------------------||
|--0-----------3-------------5---6--||
Second Guitar Solos
N.C.
\2___/0_____\2___/
~~
E +E +E +E +Q. E E Q. H
|--------------------------------------------|------------------------------|
|----------------------------------/12b13====|=12r-12----------12-----------|
|--------------------------------------------|------------------------------|
|--------------------------------------------|------------------------------|
|--------------------------------------------|------------------------------|
|-7---(7)----(7)--(7)---(7)\-----------------|------------------------------|
|
| Gtrs I, II
| PM----------------------------------------------------------------------|
| E S S E S S E S S E S S E S S E S S E S S E S S
|--------------------------------------------|------------------------------|
|--------------------------------------------|------------------------------|
|--------------------------------------------|------------------------------|
|--------------------------------------------|------------------------------|
|--------------------------------------------|------------------------------|
|-7----7---7--7----7--7--7---7-7-7---7-----7-|--7---7--7-7-7-7--7-7-7-7-7-7-|
N.C.
S S S S S S S S S S S S S S S S
|-------------------------------------------------|
|-------------------------------------------------|
|-------------------------------------11-11-11-11-|
|-------------12-12-12-12-14-14-14-14-------------|
|-14-14-14-14-------------------------------------|
|-------------------------------------------------|
|
| PM------------------------------------------|
| E S S E S S E S S E S S
|-------------------------------------------------|
|-------------------------------------------------|
|-------------------------------------------------|
|-------------------------------------------------|
|-------------------------------------------------|
|--7-----7--7--7-----7--7--7-----7--7--7-----7--7-|
S S S S S S S S S S S S S S S S
|-------------------------------------------------||
|-------------12-12-12-12-15-15-15-12-12-12-12-12-||
|-14-14-14-14-------------------------------------||
|-------------------------------------------------||
|-------------------------------------------------||
|-------------------------------------------------||
|
| Q Q Q Q
|-------------------------------------------------||
|-------------------------------------------------||
|-------------------------------------------------||
|-------------------------------------------------||
|--5-----------4-----------3-----------2----------||
|--7-----------6-----------5-----------3----------||
Q Q Q Q
N.C.
~~~~~~
H +E Q E S E. +Q +E S S E E
|-------------------------------12-|-12h14------(14)--(14)-12h14-12-------|
|-15b17=========(15)r-15-----------|-----------------------------------15-|
|----------------------------------|--------------------------------------|
|----------------------------------|--------------------------------------|
|----------------------------------|--------------------------------------|
|----------------------------------|--------------------------------------|
|
| PM------| PM-----| PM------| PM----|
| E S S Q E S S S E. E S S Q E S S S E.
|----------------------------------|--------------------------------------|
|----------------------------------|--------------------------------------|
|----------------------------------|--------------------------------------|
|----------------------------------|--------------------------------------|
|------------7-------------5h7-----|--------------7---------------5h7-----|
|--0-----0-0------0----0-0---------|--0-----0-0---------0---0--0----------|
N.C.
Q +Q S S S S S S E
|-12-----(12)\--19p17p15h17p15-------|
|------------------------------17p15h|
|------------------------------------|
|------------------------------------|
|------------------------------------|
|------------------------------------|
|
| Gtr I
| PM--| PM------|
| E S S Q E S S S E.
|------------------------------------|
|------------------------------------|
|------------------------------------|
|------------------------------------|
|----------7-----------------5h=7----|
|--0-0-0---------0-----0--0----------|
|
| Gtr II
| PM--| PM------|
| E S S Q E S S S E.
|------------------------------------|
|------------------------------------|
|------------------------------------|
|------------------------------------|
|----------7-----------------5h=7----|
|--0-0-0---------0-----0--0----------|
|------6-------| |------6-------|
S S S S S S S S S S S S S S S S S S S S
|-------------------------------------------------------------||
|-19p17p15h17p15S13----13S12h15p12h13-12----------------------||
|-------------------14-------------------14p12----------------||
|----------------------------------------------14p12----12----||
|----------------------------------------------------15----15-||
|-------------------------------------------------------------||
|
| Q Q Q Q
|-------------------------------------------------------------||
|-------------------------------------------------------------||
|-------------------------------------------------------------||
|-------------------------------------------------------------||
|--------------------2-----------------3-----------4----------||
|--3----------------------------------------------------------||
|
| Q Q Q Q
|-------------------------------------------------------------||
|-------------------------------------------------------------||
|-------------------------------------------------------------||
|-------------------------------------------------------------||
|-------------------------------------------------------------||
|--0-----------------3-----------------5-----------6----------||
Third Guitar Solos
N.C.
Q Q E. S S S E
|-----------------------------12------------|
|-15b17-----15b17-----15b17------15p12h15---|
|-------------------------------------------|
|-------------------------------------------|
|-14----------------------------------------|
|-------------------------------------------|
| Q Q H
|
| Gtrs I, II
| PM----------------------------------------
| E S S E S S E S S E S S
|-------------------------------------------|
|-------------------------------------------|
|-------------------------------------------|
|-------------------------------------------|
|-------------------------------------------|
|--7----7-7--7----7-7--7----7--7--7-----7-7-|
~~~
|--3--| |-----3------|
S S S e S +S +S S S E Q.
|--------------------------------------------------------|
|-13h15p13-12--------------------------------------------|
|---------------14b16==(14)r(14)p12----14b16-14----------|
|-----------------------------------14-------------------|
|--------------------------------------------------------|
|--------------------------------------------------------|
|
|------------------------------------------------------|
| E S S E S S E S S E S S
|--------------------------------------------------------|
|--------------------------------------------------------|
|--------------------------------------------------------|
|--------------------------------------------------------|
|--------------------------------------------------------|
|--7--------7-7--7----------------7--7--7-----7--7-7-7-7-|
N.C. Bm Bbm Am G
~~~~~~
E e e e e e e E Q H +E E
|----------------12-14---15-15b17---|-15b17--15b17======(15)r-15-||
|---12---13-15----------------------|----------------------------||
|-x---------------------------------|----------------------------||
|-----------------------------------|----------------------------||
|-----------------------------------|----------------------------||
|-----------------------------------|----------------------------||
|
| PM------------------------------|
| E S S E S S E S S E S S Q Q Q Q
|-----------------------------------|----------------------------||
|-----------------------------------|----------------------------||
|-----------------------------------|----------------------------||
|-----------------------------------|----------------------------||
|-----------------------------------|--5------4------3----2------||
|-7--7-7--7--7-7--7--7-7--7--7----7-|--7------6------5----3------||
Q Q Q Q
N.C.
|--3--| |---3---| |---3----|
S S S S S S S S S E E E E E E
|------14-15-14h15p14--------------------------------|
|-17------------------17-15-17-15---13---15----13-15-|
|----------------------------------------------------|
|----------------------------------------------------|
|----------------------------------------------------|
|----------------------------------------------------|
|
| PM-----| PM--------|
| E S S Q E S S S E.
|----------------------------------------------------|
|----------------------------------------------------|
|----------------------------------------------------|
|----------------------------------------------------|
|-------------7---------------------------5h7--------|
|--0----0--0-----------------0----0----0-------------|
~~~~~
H. E E
|-------------------------20b22==|
|-15b17--------------------------|
|--------------------------------|
|--------------------x-----------|
|--------------------------------|
|--------------------------------|
|
| PM-----| PM--|
| E S S Q E S S S E.
|--------------------------------|
|--------------------------------|
|--------------------------------|
|--------------------------------|
|-----------7--------5h7---------|
|--0----0-0----0-0-0-------------|
N.C. G Am Bbm
~~~~
+H +E +E +E S S S +E. +H +Q
|-(20)--------(20)-(20)r==(20)---20-19-|-20b22==(20)-(20)-----(20)r\--||
|--------------------------------------|------------------------------||
|--------------------------------------|------------------------------||
|--------------------------------------|------------------------------||
|--------------------------------------|------------------------------||
|--------------------------------------|------------------------------||
|
| Gtr I
| PM---| PM------|
| E S S Q E S S S E. Q Q Q Q
|--------------------------------------|------------------------------||
|--------------------------------------|------------------------------||
|--------------------------------------|------------------------------||
|--------------------------------------|------------------------------||
|----------7----------------5h7--------|---------------2---3----4-----||
|---0--0-0------0----0--0--------------|--3---------------------------||
|
| Gtr II
| PM---| PM------|
| E S S Q E S S S E. Q Q Q Q
|--------------------------------------|------------------------------||
|--------------------------------------|------------------------------||
|--------------------------------------|------------------------------||
|--------------------------------------|------------------------------||
|----------7----------------5h7--------|------------------------------||
|---0--0-0------0----0--0--------------|--0------------3---5----6-----||
Fourth Guitar Solos
N.C.
|----------------9----------------| |----------------9----------------|
|-15p14p12h==15p==14p==12h15p==14p==12h15p14p12h==15p==14p==12h15p==14p==12-|
|---------------------------------------------------------------------------|
|---------------------------------------------------------------------------|
|---------------------------------------------------------------------------|
|---------------------------------------------------------------------------|
|---------------------------------------------------------------------------|
|
| Gtrs I, II
| PM------------------------------------------------------------------------
| E S S E S S E S S E S S
|---------------------------------------------------------------------------|
|---------------------------------------------------------------------------|
|---------------------------------------------------------------------------|
|---------------------------------------------------------------------------|
|---------------------------------------------------------------------------|
|--7-------7----7----7-------7----7-----7-------7----7----7-------7----7----|
~~~
Q. +E H
|-/17b19========(17)---17r-----------|
|------------------------------------|
|------------------------------------|
|------------------------------------|
|------------------------------------|
|------------------------------------|
|
|----------------------------------|
| E S S E S S E S S E S S
|------------------------------------|
|------------------------------------|
|------------------------------------|
|------------------------------------|
|------------------------------------|
|---7-----7-7-7---7--7--7--7-7-7-7-7-|
N.C.
Q Q Q Q
|-19b20-----19-----17-----15-----|
|--------------------------------|
|--------------------------------|
|--------------------------------|
|--------------------------------|
|--------------------------------|
|
| PM--------------------------|
| E S S E S S E S S E S S
|--------------------------------|
|--------------------------------|
|--------------------------------|
|--------------------------------|
|--------------------------------|
|--7----7-7--7-7-7--7-7-7--7-7-7-|
S S S S S S S S S S S S S S S S
|-17S19-15p14-------------------------------------||
|-------------17p15h17p15-12h13----12----12h13----||
|-------------------------------14-------------11-||
|-------------------------------------14----------||
|-------------------------------------------------||
|-------------------------------------------------||
|
| Q Q Q Q
|-------------------------------------------------||
|-------------------------------------------------||
|-------------------------------------------------||
|-------------------------------------------------||
|--5-----------4-----------3-----------2----------||
|--7-----------6-----------5-----------3----------||
Q Q Q Q
N.C.
\1/ \1/ \1/ \1/ \1/
Q +Q Q +Q Q Q Q Q
|-----------------------------------|----------------------------------|
|-----------------------------------|----------------------------------|
|-11b12======(11)r--11-----(11)-----|-11b12-----11---------------------|
|-----------------------------------|-----------------14-------12------|
|-----------------------------------|----------------------------------|
|-----------------------------------|----------------------------------|
|
| PM------| PM--| PM-----| PM----|
| E S S Q E S S S E. E S S Q E S S S E.
|-----------------------------------|----------------------------------|
|-----------------------------------|----------------------------------|
|-----------------------------------|----------------------------------|
|-----------------------------------|----------------------------------|
|--------------7-------------5h==7--|------------7--------------5h==7--|
|--0-----0-0---------0-0-0----------|--0----0-0--------0---0-0---------|
N.C.
\1/ \1/
|---------------------------|
|---------------------------|
|---------------------------|
|-14------------------------|
|-------------14\-----------|
|---------------------------|
|
| Gtr I
| PM----| PM----|
| E S S Q E S S S E.
|---------------------------|
|---------------------------|
|---------------------------|
|---------------------------|
|----------7-----------5h7--|
|--0---0-0-----0---0-0------|
|
| Gtr II
| PM----| PM----|
| E S S Q E S S S E.
|---------------------------|
|---------------------------|
|---------------------------|
|---------------------------|
|----------7-----------5h7--|
|--0---0-0-----0---0-0------|
|-----5-----| |-----5-----| |-----5-----|
S S S S S S S S S S S S S S S Q
|-15p14p12h15p14p12h15p14p12h15p14p12h15p14p12-----------||
|----------------------------------------------[15]b17---||
|-12p11p=9h12p11p=9h12p11p=9h12p11p=9h12p11p=9---9\------||
|--------------------------------------------------------||
|--------------------------------------------------------||
|--------------------------------------------------------||
|
| Q Q Q Q
|--------------------------------------------------------||
|--------------------------------------------------------||
|--------------------------------------------------------||
|--------------------------------------------------------||
|-----------------2--------------3---------------4-------||
|--3-----------------------------------------------------||
|
| Q Q Q Q
|--------------------------------------------------------||
|--------------------------------------------------------||
|--------------------------------------------------------||
|--------------------------------------------------------||
|--------------------------------------------------------||
|--0--------------3--------------5---------------6-------||
Organ Solo
N.C.
E E Q H
|-------------------------------------------|
|-[15]b17-----------------------------------|
|-------------------------------------------|
|-------------------------------------------|
|-------------------------------------------|
|-------------------------------------------|
|
| Gtrs I, II
| PM-------------------|
| S +S E E E E E E E
|-------------------------------------------|
|-------------------------------------------|
|-------------------------------------------|
|---4b5---(4)-2----2---2---2---2----2---2---|
|-------------------------------------------|
|-------------------------------------------|
|
| Gtr V
| S S S S S S S S S S S S S S S S
|-------------------------------------------|
|-------------------------------------------|
|-------------------------------------------|
|----------9--7-9----9---9---9---9----9---9-|
|---7-------------10---9---7---9---10---7---|
|-------------------------------------------|
W W W
|--------------------------------------|-------------------|--------------------|
|--------------------------------------|-------------------|--------------------|
|--------------------------------------|-------------------|--------------------|
|--------------------------------------|-------------------|--------------------|
|--------------------------------------|-------------------|--------------------|
|--------------------------------------|-------------------|--------------------|
|
| PM------------------| PM----------|
| S +S E E E E E E E E E E E E E E E E E E E E E E E
|--------------------------------------|-------------------|--------------------|
|--------------------------------------|-------------------|--------------------|
|--------------------------------------|-------------------|--------------------|
|--------------------------------------|---------------5-7-|-9------------------|
|-4b5-(4)--2---2---2---2---2---2---2---|-3p2--3p2-3p2--5-6-|-7------------------|
|--------------------------------------|-------------------|---0-0-0-0-0-0-0----|
|
| S S S S S S S S S S S S S S S S E E E E E E E E Q Q Q Q
|--------------------------------------|-------------------|--------------------|
|--------------------------------------|-1-0--1-0-1-0------|--------------------|
|--------------------------------------|---------------2-2-|-------------2------|
|------7-----7---7---7---7---7---7---7-|-------------------|-2---4---5---2------|
|-5-------10---9---7---5---7---9---5---|-----10---9--------|-----6---2----------|
|--------------------------------------|-8------------10---|--------------------|
Q Q Q Q
N.C.
Gtrs I, II
PM-------------------|
S +S E E E E E E E
|---------------------------------------|
|---------------------------------------|
|---------------------------------------|
|-4b5-(4)-2----2---2---2---2----2---2---|
|---------------------------------------|
|---------------------------------------|
|
| Gtr V
| H S S S S E E
|------------------------0----------0---|
|----------------------3---3-2--3-------|
|---------------------------------------|
|------9--7-9----9---9---9---9----9---9-|
|-7-----------10---9---7---9---10---7---|
|---------------------------------------|
S S S S S S S S S S S S S S S S
D.S.S. al Dbl. Coda
PM--------------------| PM----|
S +S E E E E E E E E E E E E E E E E E E E H
|---------------------------------------|-------------------|-----------------||
|---------------------------------------|-------------------|-----------------||
|---------------------------------------|-------------------|---------7-------||
|---------------------------------------|-------------------|---------7-------||
|-4b5-(4)-2---2---2-----2---2---2---2---|-3p2--3p2-3p2------|---------5-------||
|---------------------------------------|---------------3-2-|-0-0-0-0---------||
|
| Q Q a E S S E E H H Q Q Q Q
|---------------------------------------|-3--------5--------|-----------------||
|-3-------------------1h3---1-0-1---3---|-5--------7--------|-----------------||
|---------------------------------------|-------------------|---------5--4----||
|------7--5-7---7---7-----7---7---7---7-|-------------------|-2---4---5--7----||
|-5-----------9---7-----5---7---9---5---|-----10---9--------|-----6---3--2----||
|---------------------------------------|-8------------10---|-----------------||
S S S S S S S S S S S S S S S S Q Q Q Q
Out-Chorus
&&
Gtr I
H H Q Q Q Q H H Q Q H
|-----------|------------------|-----------|----------------|
|-----------|-10b12--10--8--7--|-----------|-8--10b12--8----|
|-5----7----|------------------|-5----7----|----------------|
|-5----7----|------------------|-5----7----|----------------|
|-3----5----|------------------|-3----5----|----------------|
|-----------|------------------|-----------|----------------|
|
| Gtr II
| ~~
| H H Q Q Q Q H H Q Q H
|-----------|------------------|-----------|----------------|
|-----------|--7b8----7--5-----|-----------|----------------|
|-5----7----|--4------2-----7--|-5----7----|----------------|
|-5----7----|------------5--4--|-5----7----|----------------|
|-3----5----|------------------|-3----5----|-2---3b5---2----|
|-----------|------------------|-----------|----------------|
Q Q Q Q
H H Q Q Q Q W W
|-----------|------------------|----------|------||
|-----------|-10b12--10--8--7--|----------|------||
|-5----7----|------------------|-5--------|-7----||
|-5----7----|------------------|-5--------|-7----||
|-3----5----|------------------|-3--------|-5----||
|-----------|------------------|----------|------||
|
| ~~
| H H Q Q Q Q W W
|-----------|------------------|----------|------||
|-----------|--7b8----7--5-----|----------|------||
|-5----7----|--4------2-----7--|-5--------|-7----||
|-5----7----|------------5--4--|-5--------|-7----||
|-3----5----|------------------|-3--------|-5----||
|-----------|------------------|----------|------||
Q Q Q Q
Outro
Gtrs I, II
PM--------|
E E E S S E S S E E +E E E S S H
||----------------------|------------------|
||o---------------------|------------------|
||--9-7-9-------------9-|-(9)-7-9-x-x-7----|
||--9-7-9-------------9-|-(9)-7-9-x-x-7----|
||o-7-5-7-------------7-|-(7)-5-7-x-x-5----|
||--------0-0-0-0-0-0---|------------------|
PM--------|
E E E S S E S S E E +E E Q H
|---------------------|----------------||
|---------------------|---------------o||
|-9-7-9---------------|----------7-----||
|-9-7-9---------------|----------7-----||
|-7-5-7---------------|----------5----o||
|-------0-0-0-0-0-0-3-|-(3)-2-0--------||
Gtr III
E E Q H W +W +W
|--------------|----------|------------|--------*|
|--------------|-0--------|-(0)--------|-(0)----*|
|-9-7-9\-------|-1--------|-(1)--------|-(1)----*|
|-9-7-9\-------|-2--------|-(2)--------|-(2)----*|
|-7-5-7\-------|----------|------------|--------*|
|--------------|----------|------------|--------*|
Duration Legend
---------------
W - whole; H - half; Q - quarter; E - 8th; S - 16th; T - 32nd; X - 64th; a - acciaccatura
+ - note tied to previous; . - note dotted; .. - note double dotted
Uncapitalized letters represent notes that are staccato (1/2 duration)
Irregular groupings are notated above the duration line
Duration letters will always appear directly above the note/fret number it represents the
duration for. Duration letters with no fret number below them represent rests. Multi-
bar rests are notated in the form Wxn, where n is the number of bars to rest for. Low
melody durations appear below the staff
Tablature Legend
----------------
h - hammer-on
p - pull-off
b - bend
pb - pre-bend
r - bend release (if no number after the r, then release immediately)
/\ - slide into or out of (from/to "nowhere")
s - legato slide
S - shift slide
- natural harmonic
[n] - artificial harmonic
n(n) - tapped harmonic
~ - vibrato
tr - trill
T - tap
TP - trem. picking
PM - palm muting
\n/ - tremolo bar dip; n = amount to dip
\n - tremolo bar down
n/ - tremolo bar up
/n\ - tremolo bar inverted dip
= - hold bend; also acts as connecting device for hammers/pulls
- volume swell (louder/softer)
x - on rhythm slash represents muted slash
o - on rhythm slash represents single note slash
Misc Legend
-----------
| - bar
|| - double bar
||o - repeat start
o|| - repeat end
*| - double bar (ending)
: - bar (freetime)
$ - Segno
& - Coda
Tempo markers - = BPM(8/16=s8/s16), where s8 = swing 8ths, s16 = swing 16ths

Important: The song above is NOT stored on the Chordie server. The original song is hosted at www.guitaretab.com. Chordie works as a search engine and provides on-the-fly formatting. Chordie does not index songs against artists'/composers' will. To remove this song please click here.

Text color:
Chord color:
Chord grids: 
Font size:    
Page size: 

B D5 E E5
Rate #2 of 4 versions

Jango Player

Login - add to songbook

SHARE PAGE  




You need to log in to post comments