Guitar Tabs, Chords and Lyrics
Server problems seems to be fixed. Chordie has been experiencing problems with songs disappearing. These issues now seems to be fixed, but still verifying the fix. If you find anything strange, please email admin@chordie.com.


I Want Out  Helloween

As recorded by Helloween
(From the 1988 Album KEEPER OF THE SEVEN KEYS PART 2)
Transcribed by B. Johnson
Words and Music by Hansen
Arranged by Hansen
Gtr I (E A D G B E) - 'Rhy'
Gtr II (E A D G B E) - 'Lead 1'
Gtr III (E A D G B E) - 'Lead 2'
Gtr IV (E A D G B E) - 'Lead 3'
Gtr V (E A D G B E) - 'Rhy Overdub'
Gtr VI (E A D G B E) - 'SFX Hit'
Intro
Fast Rock Q=174
[D5]  
[4/4] Gtrs I, V
W +W
 
 ||--------------------------|-----------------------|
 ||o-------------------------|-----------------------|
 ||---7----------------------|-(7)-------------------|
 ||---7----------------------|-(7)-------------------|
 ||o--5----------------------|-(5)-------------------|
 ||--------------------------|-----------------------|

|
| Gtr II
| ~~
| E E E E E E E E E E E E Q E E
 
 ||--------------------------|-----------------------|
 ||o-10----10----10----10----|----10----10-----------|
 ||-----10----10----10----10-|-12----------10--10-10-|
 ||--------------------------|-----------------------|
 ||o-------------------------|-----------------------|
 ||--------------------------|-----------------------|

|
| Gtr III
| ~~
| E E E E E E E E E E E E Q E E
 
 ||--20p17-20p17-20p17-20p17-|-18h20-20-20-----------|
 ||o-------------------------|-------------18--18-18-|
 ||--------------------------|-----------------------|
 ||--------------------------|-----------------------|
 ||o-------------------------|-----------------------|
 ||--------------------------|-----------------------|

[Bb5] PM| [C5/G] PM|
W E E Q E E Q
 
 |-------------------------|---------------------------||
 |-------------------------|--------------------------o||
 |-------------------------|---------------------------||
 |--8----------------------|-------10----------10------||
 |--8----------------------|-------10----------10-----o||
 |--6----------------------|--8--8--------8--8---------||

|
| E E E E E E E E E E E E E E E E
 
 |-------------------------|---------------------------||
 |-10----10----10----10----|----10----10-11-10--------o||
 |----10----10----10----10-|-12----------------12-10---||
 |-------------------------|---------------------------||
 |-------------------------|--------------------------o||
 |-------------------------|---------------------------||

|
| E E E E E E E E E E E E E E E E
 
 |-20p17-20p17-20p17-20p17-|-18h20-20-20-22-20-18-17---||
 |-------------------------|--------------------------o||
 |-------------------------|---------------------------||
 |-------------------------|---------------------------||
 |-------------------------|--------------------------o||
 |-------------------------|---------------------------||

[D5] W +W +W [G5] Q [F5]E E [E5]E E [C5D5]E E
 
 |-------------|-------------------|--------------------|---------------------||
 |-------------|-------------------|--------------------|---------------------||
 |--7----------|--(7)--------------|---------(7)--------|---7-----5---4---5-7-||
 |--7----------|--(7)--------------|---------(7)--------|---5-----3---2---5-7-||
 |--5----------|--(5)--------------|---------(5)--------|-----------------3-5-||
 |-------------|-------------------|--------------------|---------------------||

|
| ~~~~
| H H Q. E Q. E a +W +H H
 
 |-------------|--13s===20-20s==22-|-22b24==(22)--------|-(22)r\--------------||
 |-------10----|-------------------|--------------------|---------------------||
 |-10----------|-------------------|--------------------|---------------------||
 |-------------|-------------------|--------------------|---------------------||
 |-------------|-------------------|--------------------|---------------------||
 |-------------|-------------------|--------------------|---------------------||

|
| W +W +W +W
 
 |-------------|-------------------|--------------------|---------------------||
 |-15----------|-(15)--------------|--------(15)--------|-(15)----------------||
 |-------------|-------------------|--------------------|---------------------||
 |-------------|-------------------|--------------------|---------------------||
 |-------------|-------------------|--------------------|---------------------||
 |-------------|-------------------|--------------------|---------------------||

1st Verse
[D5]+W +W W W
 
 |------------|------------|----------|------|
 |------------|------------|----------|------|
 |-(7)--------|-(7)--------|----------|------|
 |-(7)--------|-(7)--------|----------|------|
 |-(5)--------|-(5)--------|----------|------|
 |------------|------------|----------|------|

W W W [G5]Q [F5]E E [E5]E E [C5D5]E E
 
 |----------|----------|----------|----------------||
 |----------|----------|----------|----------------||
 |----------|----------|----------|-7--5---4---5-7-||
 |----------|----------|----------|-5--3---2---5-7-||
 |----------|----------|----------|------------3-5-||
 |----------|----------|----------|----------------||

2nd Verse
[D5]+W +W +W W
 
 |------------|------------|------------|------|
 |------------|------------|------------|------|
 |-(7)--------|-(7)--------|-(7)--------|------|
 |-(7)--------|-(7)--------|-(7)--------|------|
 |-(5)--------|-(5)--------|-(5)--------|------|
 |------------|------------|------------|------|

Gtrs I, V[D5]
W W W H E E Q
 
 |----------|----------|----------|----------------||
 |----------|----------|----------|----------------||
 |----------|----------|----------|---------7--7\--||
 |----------|----------|----------|---------7--7\--||
 |----------|----------|----------|---------5--5\--||
 |----------|----------|----------|----------------||

|
| Gtrs II, III
| W W W H E E Q
 
 |----------|----------|----------|----------------||
 |----------|----------|----------|--------10-10\--||
 |----------|----------|----------|---------7--7\--||
 |----------|----------|----------|---------7--7\--||
 |----------|----------|----------|----------------||
 |----------|----------|----------|----------------||

Pre-Chorus
$
[C5] W +W [G5]W +W
 
 |-----------|--------------------|----------|--------|
 |-----------|--------------------|----------|--------|
 |--5--------|--(5)---------------|----------|--------|
 |--5--------|--(5)---------------|-5--------|-(5)----|
 |--3--------|--(3)---------------|-5--------|-(5)----|
 |-----------|--------------------|-3--------|-(3)----|

|
| W +H E E E E W +W
 
 |-----------|--------------------|----------|--------|
 |-----------|--------------------|----------|--------|
 |-12--------|-(12)----12-12-12s7-|-7--------|-(7)----|
 |-----------|--------------------|----------|--------|
 |-----------|--------------------|----------|--------|
 |-----------|--------------------|----------|--------|

[Bb5] W +W
 
 |---------------|---------------------------------|
 |---------------|---------------------------------|
 |---------------|---------------------------------|
 |--8------------|--(8)----------------------------|
 |--8------------|--(8)----------------------------|
 |--6------------|--(6)----------------------------|

|
| Gtr II
| W +H E E E +E
 
 |---------------|---------------------------------|
 |-10b11=========|=(10)r----10b11-10b11-10b11r(10)-|
 |---------------|---------------------------------|
 |---------------|---------------------------------|
 |---------------|---------------------------------|
 |---------------|---------------------------------|

|
| Gtr III
| W +H E E E +E
 
 |---------------|---------------------------------|
 |---------------|---------------------------------|
 |--6b7==========|==(6)r-----6b7---6b7---6b7r==(6)-|
 |---------------|---------------------------------|
 |---------------|---------------------------------|
 |---------------|---------------------------------|

[A5] PM----| PM
E E E E E E E E e E Q E Q.
 
 |------------------|-------------------||
 |------------------|-------------------||
 |------------------|-------------------||
 |--7-7-7-7-7-7-7-7-|--7--------7--5----||
 |--7-7-7-7-7-7-7-7-|--7----------------||
 |--5-5-5-5-5-5-5-5-|--5----------------||

|
| Gtr IV
| PM
| W E E Q E Q.
 
 |------------------|-12h13-------------||
 |-10---------------|-------------------||
 |------------------|-------------------||
 |------------------|----------15-14----||
 |------------------|-------------------||
 |------------------|-------------------||

|
| W W
 
 |------------------|-------------------||
 |------------------|-------------------||
 |--6---------------|-------------------||
 |------------------|-------------------||
 |------------------|-------------------||
 |------------------|-------------------||

Chorus
1.,2.,3.
[D5] [Bb5] [C5] 
[4/4] Gtrs I, V
PM| PM|
W +W W E E Q E E Q 4x
 
 ||-----------|------------|----------|-------------------||
 ||o----------|------------|----------|------------------o||
 ||--7--------|-(7)--------|----------|-------------------||
 ||--7--------|-(7)--------|-8--------|-----10------10----||
 ||o-5--------|-(5)--------|-8--------|-----10------10---o||
 ||-----------|------------|-6--------|-8-8--8--8-8--8----||

|
| Gtrs II, III
| PM| PM|
| W +W W E E Q E E Q 4x
 
 ||-----------|------------|----------|-------------------||
 ||o----------|------------|----------|------------------o||
 ||--7--------|-(7)--------|----------|-------------------||
 ||--7--------|-(7)--------|-8--------|-----10------10----||
 ||o-5--------|-(5)--------|-8--------|-----10------10---o||
 ||-----------|------------|-6--------|-8-8--8--8-8--8----||

4.
To Coda
[Bb5]W [C5] E E E E E E Q
 
 |----------|---------------------||
 |----------|---------------------||
 |----------|---------------------||
 |-8--------|-10-10-10-10-10------||
 |-8--------|-10-10-10-10-10------||
 |-6--------|--8--8--8--8--8------||

|
| W E E E E E E Q
 
 |----------|---------------------||
 |----------|---------------------||
 |----------|---------------------||
 |-8--------|-10-10-10-10-10------||
 |-8--------|-10-10-10-10-10------||
 |-6--------|--8--8--8--8--8------||

Pre-Verse
[D5]  
[4/4] Gtrs I, V
W +W
 
 |-------------------------|-----------------------|
 |-------------------------|-----------------------|
 |--7----------------------|-(7)-------------------|
 |--7----------------------|-(7)-------------------|
 |--5----------------------|-(5)-------------------|
 |-------------------------|-----------------------|

|
| Gtr II
| ~~
| E E E E E E E E E E E E Q E E
 
 |-------------------------|-----------------------|
 |-10----10----10----10----|----10----10-----------|
 |----10----10----10----10-|-12----------10--10-10-|
 |-------------------------|-----------------------|
 |-------------------------|-----------------------|
 |-------------------------|-----------------------|

|
| Gtr III
| ~~
| E E E E E E E E E E E E Q E E
 
 |-20p17-20p17-20p17-20p17-|-18h20-20-20-----------|
 |-------------------------|-------------18--18-18-|
 |-------------------------|-----------------------|
 |-------------------------|-----------------------|
 |-------------------------|-----------------------|
 |-------------------------|-----------------------|

[Bb5] PM| [C5/G] PM|
W E E Q E E Q
 
 |-------------------------|-------------------------|
 |-------------------------|-------------------------|
 |-------------------------|-------------------------|
 |--8----------------------|-------10----------10----|
 |--8----------------------|-------10----------10----|
 |--6----------------------|--8--8--------8--8-------|

|
| E E E E E E E E E E E E E E E E
 
 |-------------------------|-------------------------|
 |-10----10----10----10----|----10----10-11-10-------|
 |----10----10----10----10-|-12----------------12-10-|
 |-------------------------|-------------------------|
 |-------------------------|-------------------------|
 |-------------------------|-------------------------|

|
| E E E E E E E E E E E E E E E E
 
 |-20p17-20p17-20p17-20p17-|-18h20-20-20-22-20-18-17-|
 |-------------------------|-------------------------|
 |-------------------------|-------------------------|
 |-------------------------|-------------------------|
 |-------------------------|-------------------------|
 |-------------------------|-------------------------|

[D5]  
[4/4] W +W
 
 |-------------------------|-----------------------|
 |-------------------------|-----------------------|
 |--7----------------------|-(7)-------------------|
 |--7----------------------|-(7)-------------------|
 |--5----------------------|-(5)-------------------|
 |-------------------------|-----------------------|

|
| ~~
| E E E E E E E E E E E E Q E E
 
 |-------------------------|-----------------------|
 |-10----10----10----10----|----10----10-----------|
 |----10----10----10----10-|-12----------10--10-10-|
 |-------------------------|-----------------------|
 |-------------------------|-----------------------|
 |-------------------------|-----------------------|

|
| ~~
| E E E E E E E E E E E E Q E E
 
 |-20p17-20p17-20p17-20p17-|-18h20-20-20-----------|
 |-------------------------|-------------18--18-18-|
 |-------------------------|-----------------------|
 |-------------------------|-----------------------|
 |-------------------------|-----------------------|
 |-------------------------|-----------------------|

[Bb5] PM| [C5/G] PM|
W E E Q E E Q
 
 |-------------------------|-------------------------||
 |-------------------------|-------------------------||
 |-------------------------|-------------------------||
 |--8----------------------|-------10----------10----||
 |--8----------------------|-------10----------10----||
 |--6----------------------|--8--8--------8--8-------||

|
| E E E E E E E E E E E E E E E E
 
 |-------------------------|-------------------------||
 |-10----10----10----10----|----10----10-11-10-------||
 |----10----10----10----10-|-12----------------12-10-||
 |-------------------------|-------------------------||
 |-------------------------|-------------------------||
 |-------------------------|-------------------------||

|
| E E E E E E E E E E E E E E E E
 
 |-20p17-20p17-20p17-20p17-|-18h20-20-20-22-20-18-17-||
 |-------------------------|-------------------------||
 |-------------------------|-------------------------||
 |-------------------------|-------------------------||
 |-------------------------|-------------------------||
 |-------------------------|-------------------------||

3rd Verse
Gtrs[D5] I, V[D5] [D5] [Bb5]
PM| PM| PM| PM| PM| PM| PM| PM| PM| PM|
E E E E E E E E E E E E E E Q E E E E E E E E E E E E E E Q
 
 |-----------------|----------------|-----------------|----------------|
 |-----------------|----------------|-----------------|----------------|
 |-----------------|----------------|-----------------|----------------|
 |-----7-----7-----|-7-----7-----7--|-----7-----7-----|----------------|
 |-5-5-5-5-5-5-5-5-|-5-5-5-5-5-5-5--|-5-5-5-5-5-5-5-5-|-8-----8-----8--|
 |-----------------|----------------|-----------------|-6-6-6-6-6-6-6--|

PM| [C5] PM| PM| [C5] PM| PM| PM| [D5] PM| PM|[G5] [F5] [E5] [C5D5]
E E E E E E E E E E E E E E Q E E E E E E E E Q E E E E E E
 
 |-------------------|-------------------|-----------------|----------------||
 |-------------------|-------------------|-----------------|-8--6---5-------||
 |-------------------|-------------------|-----------------|-7--5---4---5-7-||
 |-------------------|-------------------|-----7-----7-----|-5--3---2---5-7-||
 |-----10-----10-----|-10-----10-----10--|-5-5-5-5-5-5-5-5-|------------3-5-||
 |-8-8--8-8-8--8-8-8-|--8-8-8--8-8-8--8--|-----------------|----------------||

4th Verse
[D5] PM| PM| [D5] PM| PM| PM| [D5] PM| PM| [Bb5] PM| PM|
+Q E E E E E E E E E E E E Q E E E E E E E E E E E E E E Q
 
 |------------------|----------------|-----------------|----------------|
 |------------------|----------------|-----------------|----------------|
 |-(7)--------------|----------------|-----------------|----------------|
 |-(7)--7-----7-----|-7-----7-----7--|-----7-----7-----|----------------|
 |-(5)--5-5-5-5-5-5-|-5-5-5-5-5-5-5--|-5-5-5-5-5-5-5-5-|-8-----8-----8--|
 |------------------|----------------|-----------------|-6-6-6-6-6-6-6--|

D.S. al Coda
Gtr [C5]I[C5] [D5] [D5] [D5]
PM| PM| PM| PM| PM| PM| PM| PM| PM|
E E E E E E E E E E E E E E Q E E E E E E E E E E E E E E Q
 
 |-------------------|-------------------|-----------------|-------------------||
 |-------------------|-------------------|-----------------|-------------------||
 |-------------------|-------------------|-----------------|------------7--7\--||
 |-------------------|-------------------|-----7-----7-----|-7-----7----7--7\--||
 |-----10-----10-----|-10-----10-----10--|-5-5-5-5-5-5-5-5-|-5-5-5-5----5--5\--||
 |-8-8--8-8-8--8-8-8-|--8-8-8--8-8-8--8--|-----------------|-------------------||

|
| Gtr V
| PM| PM| PM| PM| PM| PM| PM| PM| PM|
| E E E E E E E E E E E E E E Q E E E E E E E E E E E E E E Q
 
 |-------------------|-------------------|-----------------|-------------------||
 |-------------------|-------------------|-----------------|-----------10-10\--||
 |-------------------|-------------------|-----------------|------------7--7\--||
 |-------------------|-------------------|-----7-----7-----|-7-----7----7--7\--||
 |-----10-----10-----|-10-----10-----10--|-5-5-5-5-5-5-5-5-|-5-5-5-5-----------||
 |-8-8--8-8-8--8-8-8-|--8-8-8--8-8-8--8--|-----------------|-------------------||

&
[D5]Gtrs I, V
TP
W +W +W W
 
 |-------------|--------------|----------------|----------||
 |-------------|--------------|----------------|----------||
 |--7----------|-(7)----------|--(7)-----------|---x\-----||
 |--7----------|-(7)----------|--(7)-----------|---x\-----||
 |--5----------|-(5)----------|--(5)-----------|----------||
 |-------------|--------------|----------------|----------||

|
| Gtr II
| ~~~~~
| H H H H W +W
 
 |-------------|-13-----20----|--22b24=========|=(22)r----||
 |-------13----|--------------|----------------|----------||
 |-10----------|--------------|----------------|----------||
 |-------------|--------------|----------------|----------||
 |-------------|--------------|----------------|----------||
 |-------------|--------------|----------------|----------||

|
| Gtr III
| TP
| H H W +W W
 
 |-------------|--------------|----------------|----------||
 |-------10----|--------------|----------------|----------||
 |--7----------|-----------|-()----------|---x\-----||
 |-------------|--------------|----------------|----------||
 |-------------|--------------|----------------|----------||
 |-------------|--------------|----------------|----------||

Bridge
[Bb5]Gtr I[A5] [A5] [Bb5] [A5]
|-3-|
E E E E Q Q Q Q H E E E E Q Q E E E E E S S S E E
 
 |---------------|------------|---------------|-----------------------||
 |---------------|------------|---------------|-----------------------||
 |---------------|------------|---------------|-----------------------||
 |---------------|------------|---------------|-----------------------||
 |-8-8-8-8-7-----|-7--7-------|-8-8-8-8-7-----|-------5-7-5h7p5-------||
 |-6-6-6-6-5-----|-5--5-------|-6-6-6-6-5-----|-5-7-8-----------8-7---||

|
| Gtr V
 
 | PM----------------|

| E E E E Q Q Q Q H E E E E Q Q E E E E E E E E
 
 |---------------|------------|---------------|-----------------------||
 |---------------|------------|---------------|-----------------------||
 |---------------|------------|---------------|-----------------------||
 |---------------|------------|---------------|-7-5---5-6-5-----------||
 |-8-8-8-8-7-----|-7--7-------|-8-8-8-8-7-----|-----8-----------8-6---||
 |-6-6-6-6-5-----|-5--5-------|-6-6-6-6-5-----|-----------------------||

[G#5] [G5] [G5] [G#5] [G5] [G5]  
 
 PM------------|

E E E E Q Q Q Q H E E E E Q Q E E E E E E E E
 
 |---------------|------------|---------------|-----------------||
 |---------------|------------|---------------|-----------------||
 |---------------|------------|---------------|-----------------||
 |---------------|------------|---------------|-----------------||
 |-6-6-6-6-5-----|-5--5-------|-6-6-6-6-5-----|-5-5-5-5-5-5-5-5-||
 |-4-4-4-4-3-----|-3--3-------|-4-4-4-4-3-----|-3-3-3-3-3-3-3-3-||

|
 
 | PM------------|

| E E E E Q Q Q Q H E E E E Q Q E E E E E E E E
 
 |---------------|------------|---------------|-----------------||
 |---------------|------------|---------------|-----------------||
 |---------------|------------|---------------|-----------------||
 |---------------|------------|---------------|-6-4---4-5-4---4-||
 |-6-6-6-6-5-----|-5--5-------|-6-6-6-6-5-----|-----7-------7---||
 |-4-4-4-4-3-----|-3--3-------|-4-4-4-4-3-----|-----------------||

[F#5] [F5] [F5] [F#5] [F5] |-3-|
E E E E Q Q Q Q H E E E E Q Q E E E E E S S S E E
 
 |---------------|------------|---------------|----------------------||
 |---------------|------------|---------------|----------------------||
 |---------------|------------|---------------|----------------------||
 |---------------|------------|---------------|----------------------||
 |-4-4-4-4-3-----|-3--3-------|-4-4-4-4-3-----|-------2-3-2h3p2---2--||
 |-2-2-2-2-1-----|-1--1-------|-2-2-2-2-1-----|-1-3-5-----------5----||

|
 
 | PM----------------|

| E E E E Q Q Q Q H E E E E Q Q E E E E E E E E
 
 |---------------|------------|---------------|----------------------||
 |---------------|------------|---------------|----------------------||
 |---------------|------------|---------------|----------------------||
 |---------------|------------|---------------|-3-1-0-1-3-1-----0-1--||
 |-4-4-4-4-3-----|-3--3-------|-4-4-4-4-3-----|----------------------||
 |-2-2-2-2-1-----|-1--1-------|-2-2-2-2-1-----|----------------------||

[G5]Gtrs I, V
W
 
 |-------------------------------------------------|
 |-------------------------------------------------|
 |--0----------------------------------------------|
 |--5----------------------------------------------|
 |--5----------------------------------------------|
 |--3----------------------------------------------|

|
| Gtrs II, III, IV
| S S S S S S S S S S S S S S S S
 
 |-------------------------------------------------|

|-12h13p12h13p12h13p12h13p12h13p12h13p12h13p12h13p|
 
 |-------------------------------------------------|
 |-------------------------------------------------|
 |-------------------------------------------------|
 |-------------------------------------------------|

+W
 
 |----------------------------------------------------|
 |----------------------------------------------------|
 |-(0)------------------------------------------------|
 |-(5)------------------------------------------------|
 |-(5)------------------------------------------------|
 |-(3)------------------------------------------------|

|
 
 | |-----5-----|

| S S S S S S S S S S S S S S S S S
 
 |----------------------------------------------------|

|-12h13p12h13p12h13p12h13p12h13p12h13p12h13p12h13p12-|
 
 |----------------------------------------------------|
 |----------------------------------------------------|
 |----------------------------------------------------|
 |----------------------------------------------------|

[E5] <[E5]
 
 PM---------------------------------------------------------|

[E] [E] [E] [E] [E] [E] [E] [E] [E] [E] [E] [E] [E] [E] [E] [E]  
 
 |-------------------------------------------------|-------------------------||
 |-------------------------------------------------|-------------------------||
 |-------------------------------------------------|-------------------------||
 |-------------------------------------------------|-------------2---2-2--2--||
 |--2-----2-----2-----2-----2-----2-----2-----2----|--2----2-2-2-2---2-2--2--||
 |--0-----0-----0-----0-----0-----0-----0-----0----|--0----0-0-0-0---0-0--0--||

|
| \2_______|
| ~~~~~
| S S S S S S S S S S S S S S S S H Q. +E
 
 |-12h13p12h13p12h13p12h13p12h13p12h13p12h13p12h13-|-17b19-------------------||
 |-------------------------------------------------|-------------------------||
 |-------------------------------------------------|-------------------------||
 |-------------------------------------------------|-------------------------||
 |-------------------------------------------------|-------------------------||
 |-------------------------------------------------|-------------0-------(0)-||

Guitar Solo
[A5] H.. [F5] E +W
 
 |-------------------------|------------------------|
 |-------------------------|------------------------|
 |--2----------------------|------------------------|
 |--2--------------------3-|-(3)--------------------|
 |--0--------------------3-|-(3)--------------------|
 |-----------------------1-|-(1)--------------------|

|
| ~~~~~
| H Q +E E H. E +E
 
 |-------------------------|-15b17------15b17==(15)r|
 |-15b17----15b17r=(15)p13-|------------------------|
 |-------------------------|------------------------|
 |-------------------------|------------------------|
 |-------------------------|------------------------|
 |-------------------------|------------------------|

[G5] H.. [E5] E +W
 
 |---------------------------------|-------------------------------------------|
 |---------------------------------|-------------------------------------------|
 |---------------------------------|-------------------------------------------|
 |---5------------------------2----|-(2)---------------------------------------|
 |---5------------------------2----|-(2)---------------------------------------|
 |---3------------------------0----|-(0)---------------------------------------|

|
| +Q. E +Q S S S S S S S S S S S S S S S S Q
 
 |-(15)----15b17r(15)--13h15p13s12h|=13p12h13p12h13p12h13p12h13p12h13p12-12\---|
 |---------------------------------|-------------------------------------12\---|
 |---------------------------------|-------------------------------------------|
 |---------------------------------|-------------------------------------------|
 |---------------------------------|-------------------------------------------|
 |---------------------------------|-------------------------------------------|

PM| [F5] PM| PM PM| [G5] PM| PM
[E] [E] [E] [E] [E] [E] [E] [E] [E] [E] [E] [E] [E] [E] [E] [E]  
 
 |-----------------|-----------------|
 |-----------------|-----------------|
 |-----------------|-----------------|
 |-----------------|-----------------|
 |-----3-----3---3-|-----5-----5---5-|
 |-1-1-1-1-1-1-1-1-|-3-3-3-3-3-3-3-3-|

|
 
 | PM------------------------------|

| E E E E E E E E E E E E E E E E
 
 |-----------------|---------------7-|
 |-6-5---6-5---6-5-|-8-6-5-8-6-5-8---|
 |-----7-----7-----|-----------------|
 |-----------------|-----------------|
 |-----------------|-----------------|
 |-----------------|-----------------|

[A5] [A5]  
 
 PM--| PM--| PM--| PM--|

[E] [E] [E] [E] [E] [E] [E] [E] [E] [E] [E] [E] [+B]  
 
 |--------------------------------|--------------------------|
 |--------------------------------|--------------------------|
 |--------------------------------|--------------------------|
 |--------------------------------|-------------7---(7)------|
 |---------7----------7-----------|-7-----------7---(7)------|
 |-5---5---5---5---5--5---5---5---|-5---5---5---5---(5)------|

|
| ~~~
| S S S S S S S S E S S S S S S S S S S S S S S Q Q
 
 |-8p7h8p7h8p7h8p7----------------|--------------------------|
 |-----------------8-10p8-6h8p6h8p|=6h8p6h8---5--------------|
 |--------------------------------|---------7---7p5----------|
 |--------------------------------|------------------7\------|
 |--------------------------------|--------------------------|
 |--------------------------------|--------------------------|

[A5] H.. [F5] E +W
 
 |------------------------------|--------------------------------------|
 |------------------------------|--------------------------------------|
 |--2---------------------------|--------------------------------------|
 |--2----------------------3----|--(3)---------------------------------|
 |--0----------------------3----|--(3)---------------------------------|
 |-------------------------1----|--(1)---------------------------------|

|
| ~~~~~
| H E +E E E +E E E E E +Q S S
 
 |------------------------------|------20-------20------------------17-|
 |------------------------20b22-|-(20)----20b22----20b22==(20)r--20----|
 |-19b21----19b21r(19)-17-------|--------------------------------------|
 |------------------------------|--------------------------------------|
 |------------------------------|--------------------------------------|
 |------------------------------|--------------------------------------|

[G5] H.. [E5] E +W
 
 |---------------------------|----------------|
 |---------------------------|----------------|
 |---------------------9-----|--(9)-----------|
 |--5------------------9-----|--(9)-----------|
 |--5------------------7-----|--(7)-----------|
 |--3------------------0-----|--(0)-----------|

|
| ~~~~~
| Q E E E E E E +Q +H.
 
 |-19----20---22---20-22b24==|=(22)--(22)r----|
 |---------------------------|----------------|
 |---------------------------|----------------|
 |---------------------------|----------------|
 |---------------------------|----------------|
 |---------------------------|----------------|

[C5] W [D5] W
 
 |------------------|----------------------------------------------------|
 |------------------|----------------------------------------------------|
 |--5---------------|--7-------------------------------------------------|
 |--5---------------|--7-------------------------------------------------|
 |--3---------------|--5-------------------------------------------------|
 |------------------|----------------------------------------------------|

|
| H.. +E S S S S S S S S S T T S S S S S S
 
 |-22b24r======(22)-|-22p20-20-19-20p19p17h19p17-17-17-------------------|
 |------------------|----------------------------------20p19-20p19p17h19-|
 |------------------|----------------------------------------------------|
 |------------------|----------------------------------------------------|
 |------------------|----------------------------------------------------|
 |------------------|----------------------------------------------------|

[E5]  
 
 PM------| PM---| PM---|

[E] [E] [E] [E] [E] [E] [E] [E]  
 
 |-------------------------------------------------------|
 |-------------------------------------------------------|
 |-------------------------------------------------------|
 |-----------------9-----------------9-------------------|
 |-----------------7-----------------7-------------------|
 |--0--------0-----------0-----0-----------0-----0-------|

|
| |--3--|
| S T T S S S S S S S S S S S S S S S
 
 |-------------------------------------------------------|
 |-15-17-17-15-------------------------------------------|
 |-------------17-17p16h17p16-14h16p14-12h14p12-11h12p11-|
 |-------------------------------------------------------|
 |-------------------------------------------------------|
 |-------------------------------------------------------|

[E5]  
 
 PM---| PM---|

E E E E E E Q
 
 |-----------------------------------------||
 |-----------------------------------------||
 |------------------------------------9----||
 |--9-----------------9---------------9----||
 |--7-----------------7---------------7----||
 |--------0-----0-----------0-----0--------||

|
| ~~~~~~~~
| S S S S S S S S S S E +Q
 
 |-----------------------------------------||
 |-----------------------------------------||
 |-----------------------------------------||
 |-14p12h14p12-----------------------------||
 |-------------12h14p12p10s14--------------||
 |----------------------------12-12-(12)\--||

[D5]Gtrs I, V[E5] [F5]
H E E E E +W
 
 ||-------------------|----------------------|
 ||o------------------|----------------------|
 ||---7-----7----9-10-|-(10)-----------------|
 ||---7-----7----9-10-|-(10)-----------------|
 ||o--5-----5----7--8-|--(8)-----------------|
 ||-------------------|----------------------|

|
| Gtr IV
| H E E E E +H Q +Q
 
 ||-------------------|----------------------|
 ||o------------17-18-|-(18)----18b20r=(18)--|
 ||--19----19---------|----------------------|
 ||-------------------|----------------------|
 ||o------------------|----------------------|
 ||-------------------|----------------------|

|
| Gtrs II, III
| H E E E E +H Q +Q
 
 ||-------------------|----------------------|
 ||o-------------5--6-|--(6)-----6b8r===(6)--|
 ||---7-----7------14-|-(14)-----------------|
 ||--15----15---17----|---------19b21r=(19)--|
 ||o------------------|----------------------|
 ||-------------------|----------------------|

[C5] PM| [C5] PM|
W E E Q E E Q
 
 |-----------|--------------------------|
 |-----------|--------------------------|
 |-----------|--------5-----------5-----|
 |-10--------|--------5-----------5-----|
 |-10--------|--3--3--3-----3--3--3-----|
 |--8--------|--------------------------|

|
 
 | ~~ PM------------------|

| W E E E E E E E E
 
 |-----------|--------------------------|
 |-----------|-20-20-18-18-17-17--------|
 |-17--------|-------------------17-17--|
 |-----------|--------------------------|
 |-----------|--------------------------|
 |-----------|--------------------------|

|
 
 | ~~ PM------------------|

| W E E E E E E E E
 
 |-----------|--------------------------|
 |-----------|-13-13-11-11-10-10--------|
 |--5--------|--5--5--------------9--9--|
 |-----------|--------8--8--7--7--5--5--|
 |-19--------|--------------------------|
 |-----------|--------------------------|

[D5] H E E [E5] E [F5] E +W
 
 |------------------|------------------------|
 |------------------|------------------------|
 |--7-----7----9-10-|-(10)-------------------|
 |--7-----7----9-10-|-(10)-------------------|
 |--5-----5----7--8-|--(8)-------------------|
 |------------------|------------------------|

|
| H E E E E +H E E E E
 
 |------------------|------------------------|
 |------------17-18-|-(18)----20---18-20b22==|
 |-19----19---------|------------------------|
 |------------------|------------------------|
 |------------------|------------------------|
 |------------------|------------------------|

|
| H E E E E +H E E E E
 
 |------------------|------------------------|
 |-------------5--6-|--(6)-----8----6--8b10==|
 |--7-----7------14-|-(14)----16---14-16b18==|
 |-15----15---17----|------------------------|
 |------------------|------------------------|
 |------------------|------------------------|

[C5] PM| [C5] PM|
W E E Q E E Q
 
 |-----------------|--------------------------||
 |-----------------|-------------------------o||
 |-----------------|--------5-----------5-----||
 |--10-------------|--------5-----------5-----||
 |--10-------------|--3--3--3-----3--3--3----o||
 |---8-------------|--------------------------||

|
 
 | ~~~~ PM------------------|

| +Q +H. E E E E E E E E
 
 |-----------------|-20-20-18-18-17-17--------||
 |-(20)r=(20)------|-------------------20-20-o||
 |-----------------|--------------------------||
 |-----------------|--------------------------||
 |-----------------|-------------------------o||
 |-----------------|--------------------------||

|
 
 | ~~~~ PM------------------|

| +Q +H. E E E E E E E E
 
 |-----------------|--8--8--6--6--5--5--------||
 |--(8)r==(8)------|--------------------8--8-o||
 |-(16)r=(16)------|--------------------------||
 |-----------------|-14-14-12-12-10-10--------||
 |-----------------|-------------------15-15-o||
 |-----------------|--------------------------||

Interlude
[D5]Gtrs I, V
W +W Q. E H Q. E H
 
 |-----------|-------------|---------------|---------------|
 |-----------|-------------|---------------|---------------|
 |--7--------|--(7)--------|---------------|---------------|
 |--7--------|--(7)--------|--------7------|--------7------|
 |--5--------|--(5)--------|---------------|---------------|
 |-----------|-------------|---6-----------|---8-----------|

|
| Gtrs II, III
| W +W +W +W
 
 |-----------|-------------|---------------|---------------|
 |-15--------|-(15)--------|-(15)----------|-(15)----------|
 |-10--------|-(10)--------|-(10)----------|-(10)----------|
 |-----------|-------------|---------------|---------------|
 |-----------|-------------|---------------|---------------|
 |-----------|-------------|---------------|---------------|

|
| Gtr IV
| ~~~~~~~~~~~~~~~~~~~~~~~~~~~~~~~~~
| W +W W W
 
 |-----------|-------------|---------------|---------------|
 |-----------|-------------|---------------|---------------|
 |-----------|-------------|---------------|---------------|
 |-----------|-------------|---------------|---------------|
 |--5--------|--(5)--------|---------------|---------------|
 |-----------|-------------|---6-----------|---8-----------|

W W W W
 
 |-------------|-------------------|-------------|---------|
 |-------------|-------------------|-------------|---------|
 |-------------|-------------------|-------------|---------|
 |-------------|-------------------|-------------|---------|
 |-------------|-------------------|-------------|---------|
 |-------------|-------------------|-------------|---------|

|
| +W +W +W +W
 
 |-------------|-------------------|-------------|---------|
 |-(15)--------|-(15)--------------|-(15)--------|-(15)----|
 |-(10)--------|-------------------|-------------|---------|
 |-------------|-------------------|-------------|---------|
 |-------------|-------------------|-------------|---------|
 |-------------|-------------------|-------------|---------|

|
| Gtrs IV, V
| ~~~~~~~~~~~~~~~~~
| W +Q E E. S E Q W W
 
 |-------------|-------------------|-------------|---------|
 |-------------|-------------------|-------------|---------|
 |-------------|-------------------|-------------|---------|
 |-------------|-------------------|-------------|---------|
 |--[5]--------|--(5)--7----8------|-------------|---------|
 |-------------|-------------------|-------------|---------|

W W W W
 
 |----------------|-------------|-------------|---------|
 |----------------|-------------|-------------|---------|
 |----------------|-------------|-------------|---------|
 |----------------|-------------|-------------|---------|
 |----------------|-------------|-------------|---------|
 |----------------|-------------|-------------|---------|

|
| +W +W +W +W
 
 |----------------|-------------|-------------|---------|
 |-(15)-----------|-(15)--------|-(15)--------|-(15)----|
 |----------------|-------------|-------------|---------|
 |----------------|-------------|-------------|---------|
 |----------------|-------------|-------------|---------|
 |----------------|-------------|-------------|---------|

|
| Gtr VI
| Q Q H W W W
 
 |-------10-------|-------------|-------------|---------|
 |-------10-------|-------------|-------------|---------|
 |--------7-------|-------------|-------------|---------|
 |----------------|-------------|-------------|---------|
 |----------------|-------------|-------------|---------|
 |----------------|-------------|-------------|---------|

W W W W
 
 |-------------|-------------|----------|------||
 |-------------|-------------|----------|------||
 |-------------|-------------|----------|------||
 |-------------|-------------|----------|------||
 |-------------|-------------|----------|------||
 |-------------|-------------|----------|------||

|
| +W +W W W
 
 |-------------|-------------|----------|------||
 |-(15)--------|-(15)--------|----------|------||
 |-------------|-------------|----------|------||
 |-------------|-------------|----------|------||
 |-------------|-------------|----------|------||
 |-------------|-------------|----------|------||

|
| W W W W
 
 |-------------|-------------|----------|------||
 |-------------|-------------|----------|------||
 |-------------|-------------|----------|------||
 |-------------|-------------|----------|------||
 |-------------|-------------|----------|------||
 |-------------|-------------|----------|------||

Out-Chorus
[D5]Gtrs I, V[Bb5] [C5]
PM| PM|
W +W W E E Q E E Q
 
 |--------------|------------|----------|-----------------|
 |--------------|------------|----------|-----------------|
 |--7-----------|-(7)--------|----------|-----------------|
 |--7-----------|-(7)--------|-8--------|-----10------10--|
 |--5-----------|-(5)--------|-8--------|-----10------10--|
 |--------------|------------|-6--------|-8-8--8--8-8--8--|

|
| Gtrs II, III, IV
| Q Q H W W W
 
 |-22\----------|------------|----------|-----------------|
 |--------------|------------|----------|-----------------|
 |--------------|------------|----------|-----------------|
 |--------------|------------|----------|-----------------|
 |--------------|------------|----------|-----------------|
 |--------------|------------|----------|-----------------|

1.,2.
[D5] [Bb5] [C5/G] 
[4/4] PM| PM|
W +W W E E Q E E Q 3x
 
 ||-----------|------------|----------|-------------------||
 ||o----------|------------|----------|------------------o||
 ||--7--------|-(7)--------|----------|-------------------||
 ||--7--------|-(7)--------|-8--------|-----10------10----||
 ||o-5--------|-(5)--------|-8--------|-----10------10---o||
 ||-----------|------------|-6--------|-8-8-----8-8-------||

3.
[D5]W [C5] E E E E Q Q
 
 |----------|---------------------||
 |----------|---------------------||
 |-7--------|---------------------||
 |-7--------|-10-10-10-10-10\-----||
 |-5--------|-10-10-10-10-10\-----||
 |----------|--8--8--8--8--8\-----||

[E5]  
[4/4] Gtrs I, V
W +W
 
 ||--------------------------|-----------------------|
 ||o-------------------------|-----------------------|
 ||---9----------------------|-(9)-------------------|
 ||---9----------------------|-(9)-------------------|
 ||o--7----------------------|-(7)-------------------|
 ||--------------------------|-----------------------|

|
| Gtr II
| ~~
| E E E E E E E E E E E E Q E E
 
 ||--------------------------|-----------------------|
 ||o-12----12----12----12----|----12----12-----------|
 ||-----12----12----12----12-|-14----------12--12-12-|
 ||--------------------------|-----------------------|
 ||o-------------------------|-----------------------|
 ||--------------------------|-----------------------|

|
| Gtr III
| ~~
| E E E E E E E E E E E E Q E E
 
 ||--22p19-22p19-22p19-22p19-|-20h22-22-22-----------|
 ||o-------------------------|-------------20--20-20-|
 ||--------------------------|-----------------------|
 ||--------------------------|-----------------------|
 ||o-------------------------|-----------------------|
 ||--------------------------|-----------------------|

[C5] PM| [D5/A] PM|
W E E Q E E Q 4x
 
 |-------------------------|---------------------------||
 |-------------------------|--------------------------o||
 |-------------------------|---------------------------||
 |-10----------------------|-------12----------12------||
 |-10----------------------|-------12----------12-----o||
 |--8----------------------|-10-10-------10-10---------||

|
| E E E E E E E E E E E E E E E E 4x
 
 |-------------------------|---------------------------||
 |-12----12----12----12----|----12----12-13-12--------o||
 |----12----12----12----12-|-14----------------14-12---||
 |-------------------------|---------------------------||
 |-------------------------|--------------------------o||
 |-------------------------|---------------------------||

|
| E E E E E E E E E E E E E E E E 4x
 
 |-22p19-22p19-22p19-22p19-|-20h22-22-22-24-22-20-19---||
 |-------------------------|--------------------------o||
 |-------------------------|---------------------------||
 |-------------------------|---------------------------||
 |-------------------------|--------------------------o||
 |-------------------------|---------------------------||

[E5] E E Q H [E5]E E Q H
 
 |---------------|--------------*|
 |---------------|--------------*|
 |--9--9---------|-9-9\---------*|
 |--9--9-

Important: The song above is NOT stored on the Chordie server. The original song is hosted at www.guitaretab.com. Chordie works as a search engine and provides on-the-fly formatting. Chordie does not index songs against artists'/composers' will. To remove this song please click here.

Text color:
Chord color:
Chord grids: 
Font size:    
Page size: 

A5 Bb5 C5 C5/G D5 D5/A E E5 F#5 F5 G#5 G5
Rate #1 of 5 versions

Jango Player

Login - add to songbook

SHARE PAGE  




You need to log in to post comments