Guitar Tabs, Chords and Lyrics
Server problems seems to be fixed. Chordie has been experiencing problems with songs disappearing. These issues now seems to be fixed, but still verifying the fix. If you find anything strange, please email admin@chordie.com.


Bugs  Hepburn

1999 Sony Records
Submitted by: paramore_fans@yahoo.com
Tuning: Standard EADGBe
 
 Intro: F--Bb--Gm--C (x4)

Guitar 2: 0:09
 
 e|--------------------------------|
 B|--------------------------------|
 G|-3/5-5\3-2----------------2-----|
 D|-----------5\3--3/5-5-3-5---5\3-| (x2)
 A|--------------------------------|
 E|--------------------------------|

Guitar 3:
 
 e|-1-3-1-3--|
 B|-1-1-1-1--|
 G|-2-2-2-2--|
 D|-3-3-3-3--| (x16)
 A|----------|
 E|----------|

Verse 1: Bass Lines
[F] [Bb] [Gm] [C] [F]  
Can'[Gm]t t[C]ie me down, won't shut me up, you will not win
[F] [Bb] [Gm] [C] [F]  
Th[Gm]e pu[C]rpose of this song's to say my life begins
Refrain:
[Dm] I [C]want to [F]fly (I want to fly)
[Dm] Reach [C]out, be [F]healed (reach out, be healed)
[Dm] Don't[C] want to [F]die (don't want to die)
Like [Bb]bugs on the [F/A]windshield[Gm] [F]
Like [Bb]bugs on the [F/A]windshield
Guitar 2: Like Bugs...
 
 e|---1------1------1------1------1------1---|
 B|-----1------1------1------1------1------1-|
 G|-3------2------0-------------3------2-----|
 D|----------------------3-------------------|
 A|------------------------------------------|
 E|------------------------------------------|

(Repeat Intro but twice only)
Verse 2:
[F] [Bb] [Gm] [C] [F]  
I'[Gm]m dri[C]ving down a dirt track road, I know nowhere
[F] [Bb] [Gm] [C] [F]  
And[Gm] up above[C] the heavens spin, I wish me there (I wish me there)
(Repeat Refrain)
Bridge:
[Eb] Don't talk to me I'm seeing [C]red
[Eb] You're the last thing in my head
Interlude:
 
 Intro: F--Bb--Gm--C (x4)

Guitar 2:
 
 e|--------------------------------|-----------------------------------------------8-8-8-8-8-13-13-|
 B|--------------------------------|-1/4-4-3-1---1----1-1-----1-1--1/4-4-3-1---1---8-6-8-6-8-13-13-|
 G|-3/5-5\3-2----------------2-----|-----------3------------3----------------3---------------------|
 D|-----------5\3--3/5-5-3-5---5\3-|---------------3------3----------------------3-----------------|
 A|--------------------------------|---------------------------------------------------------------|
 E|--------------------------------|---------------------------------------------------------------|

x2 this bar
Guitar 3:
 
 e|-1-3-1-3--|
 B|-1-1-1-1--|
 G|-2-2-2-2--|
 D|-3-3-3-3--| (x64)
 A|----------|
 E|----------|

Refrain 2:
[Dm] I [C]want to [F]fly (I want to fly)
[Dm] Reach [C]out, be [F]healed (reach out, be healed)
[Dm] Don't [C]want to [F]die (don't want to die)
[Dm] It's t[C]ime to s[F]teal (it's time to steal)
(Repeat Refrain)
Outro:
[Bb]Bugs on the [F/A]windshield[Gm] [F]
Like [Bb]bugs on the [F/A]windshield[Eb]
Guitar 2:
 
 e|---1------1------1------|----1------1-----|
 B|-----1------1------1----|------1------1-4-|
 G|-3------2------0--------|-3-------2-----3-|
 D|----------------------3-|---------------1-|
 A|------------------------|-----------------|
 E|------------------------|-----------------|

x3
Guitar 3:
 
 e|------------------------------------------|
 B|------------------------------------------|
 G|---------------------------------------8--|
 D|-3-5-5/7-3----3-5-5/7-10----3-5-5/7-3--8--|
 A|---------------------------------------6--|
 E|------------------------------------------|


Important: The song above is NOT stored on the Chordie server. The original song is hosted at www.guitaretab.com. Chordie works as a search engine and provides on-the-fly formatting. Chordie does not index songs against artists'/composers' will. To remove this song please click here.

Text color:
Chord color:
Chord grids: 
Font size:    
Page size: 

Bb C Dm Eb F Gm
Rate #1 of 2 versions

Jango Player

Login - add to songbook

SHARE PAGE  



You need to log in to post comments