Guitar Tabs, Chords and Lyrics
Server problems seems to be fixed. Chordie has been experiencing problems with songs disappearing. These issues now seems to be fixed, but still verifying the fix. If you find anything strange, please email admin@chordie.com.


Take Heart  Hillsong United

First song off the new album "Aftermath". Awesome tune, had fun tabbing it.
Effects: clean; slight delay
Chord Chart:
[B] [E] [F#1] [F#2] [G#m]  
 
 e|-----0---------2----------|
 B|-4---0---2-----2----4-----|
 G|-4---1---3-----3----4-----|
 D|-4---2---4-----4----6-----|
 A|-2---2---4-----4----6-----|
 E|-----0---------2----4-----|

INTRO (0:00 - 0:37)
 
 e|---------------------------------4---6---4------------------------|
 B|-4-------7-------4-------4---7----------------7---4---4---4---4---|
 G|---4---4---4---4---4---4-----------4---4---4----4---4---4---4-----|
 D|-----6-------6-------6-----6---6----------------------------------|
 A|------------------------------------------------------------------|
 E|------------------------------------------------------------------|
 e|---------------------------------4---6---4----------------|
 B|-4-------7-------4-------4---7----------------7---4---4---|
 G|---4---4---4---4---4---4-----------4---4---4----4---4-----|
 D|-----6-------6-------6-----6---6--------------------------|
 A|----------------------------------------------------------|
 E|----------------------------------------------------------|
 e|---------------------------------------------------------------------|
 B|---------------7-----7------7-----------------------4----------------|
 G|-4--6--8-6---6----6------6-----6/8--8\6--6p4-----4-----4-----4----4--|
 D|-----------4--------4------4----------------4h6----------4-----4-----|
 A|-----------------------------------------------------------2---------|
 E|---------------------------------------------------------------------|
 e|----------------------------------------------------------------|
 B|---------------7-----7------7-----------------------------------|
 G|-4--6--8-6---6----6------6-----6/8--8\6--6p4-------4----4----4--|
 D|-----------4--------4------4----------------4h6-6----6----6-----|
 A|----------------------------------------------------------------|
 E|----------------------------------------------------------------|
 e|-----------------------------------------------------------------------|
 B|----------4-----------------4-----------------4-----------------4------|
 G|-4---4--------4----4---4--------4----4---4--------4----4---4--------4--|
 D|--------4-----------------4-----------------4-----------------4--------|
 A|---2-----------------2-----------------2-----------------2-------------|
 E|-----------------------------------------------------------------------|

VERSE 1 (0:38 - 1:07)
(picking pattern)
There is a light
It burns br[B]ighter than the sun
He steals[E] the night[B]
[F#1] [G#m]  
 
 And casts no shadow E|---------7---| (mini riff, right after "shadow"
 B E B|-4h5p0-------|

There is hope
Should oc[B]eans rise and mountains fall
He never fails[E] [B] [F#1]
[F#1] [G#m] [E]  
CHORUS (1:08 - 1:36)
picking pattern
So take heart
Let His [F#2]love lead us through the night
Hold on [G#m]to hope[E] [B]
And take co[F#2]urage a- ga- in
[G#m] [E] [B] 
a second guitar plays this during chorus:
 
 e|--------------------------------------------------------------------------|
 B|-4------4-----------4------4-----------4------4-----------5------5--4-----|
 G|---4------6----4------4------6----4------4------6----4------4-----------6-|
 D|-----4------------------4------------------4------------------6-----------|
 A|--------------------------------------------------------------------------|
 E|--------------------------------------------------------------------------|
 e|--------------------------------------------------------------------------|
 B|-4------4-----------4------4-----------4------4-----------4------4--------|
 G|---4------6----4------4------6----4------4------6----4------4------6----4-|
 D|-----4------------------4------------------4------------------4-----------|
 A|--------------------------------------------------------------------------|
 E|--------------------------------------------------------------------------|

VERSE 2 (1:37 - 2:05)
picking pattern
In death by love
The fallen w[B]orld was overcome
[E] [B]  
 
 He wears the scars of our free- dom E|---------7--| (mini riff, right after "freedom"
 F#1 G#m B E B|-4h5p0-------|

In His Name
All our fea[B]rs are swept away
He never[E] fails[B]
[F#1] [G#m]  
CHORUS (2:06 - 2:34)
picking pattern
So take heart
Let His [F#2]love lead us through the night
Hold on [G#m]to hope[E] [B]
And take co[F#2]urage a- ga- in
[G#m] [E] [B]  
a second guitar plays this during chorus:
 
 e|--------------------------------------------------------------------------|
 B|-4------4-----------4------4-----------4------4-----------5------5--4-----|
 G|---4------6----4------4------6----4------4------6----4------4-----------6-|
 D|-----4------------------4------------------4------------------6-----------|
 A|--------------------------------------------------------------------------|
 E|--------------------------------------------------------------------------|
 e|--------------------------------------------------------------------------|
 B|-4------4-----------4------4-----------4------4-----------4------4--------|
 G|---4------6----4------4------6----4------4------6----4------4------6----4-|
 D|-----4------------------4------------------4------------------4-----------|
 A|--------------------------------------------------------------------------|
 E|--------------------------------------------------------------------------|

(2:36 - 3:04)
then: same thing as the intro, building up to the bridge
 
 e|---------------------------------4---6---4------------------------|
 B|-4-------7-------4-------4---7----------------7---4---4---4---4---|
 G|---4---4---4---4---4---4-----------4---4---4----4---4---4---4-----|
 D|-----6-------6-------6-----6---6----------------------------------|
 A|------------------------------------------------------------------|
 E|------------------------------------------------------------------|
 e|---------------------------------4---6---4----------------|
 B|-4-------7-------4-------4---7----------------7---4---4---|
 G|---4---4---4---4---4---4-----------4---4---4----4---4-----|
 D|-----6-------6-------6-----6---6--------------------------|
 A|----------------------------------------------------------|
 E|----------------------------------------------------------|
 e|---------------------------------------------------------------------|
 B|---------------7-----7------7-----------------------4----------------|
 G|-4--6--8-6---6----6------6-----6/8--8\6--6p4-----4-----4-----4----4--|
 D|-----------4--------4------4----------------4h6----------4-----4-----|
 A|-----------------------------------------------------------2---------|
 E|---------------------------------------------------------------------|
 e|----------------------------------------------------------------|
 B|---------------7-----7------7-----------------------------------|
 G|-4--6--8-6---6----6------6-----6/8--8\6--6p4-------4----4----4--|
 D|-----------4--------4------4----------------4h6-6----6----6-----|
 A|----------------------------------------------------------------|
 E|----------------------------------------------------------------|
 e|-----------------------------------------------------------------------|
 B|----------4-----------------4-----------------4-----------------4------|
 G|-4---4--------4----4---4--------4----4---4--------4----4---4--------4--|
 D|--------4-----------------4-----------------4-----------------4--------|
 A|---2-----------------2-----------------2-----------------2-------------|
 E|-----------------------------------------------------------------------|

(3:05 - 3:48)
(picking pattern) - no words
B - for 4 bars, then:
G#m - E - B - F#2 (2x)
(2 bars each chord)
BRIDGE (3:49 - 6:13)
All our troubles
[G#m] And all our tears
[E] God our hope
[B] He has overcome
[F#2]  
All our failure
[G#m] And all our fear
[E] God our love
[B] He has overcome
[F#2]  
All our heartache
[G#m] And all our pain
[E] God our healer
[B] He has overcome
[F#2]  
All our burdens
[G#m] And all our shame
[E] God our freedom
[B] He has overcome
[F#2]  
All our troubles (chord progression changes)
[B] And all our tears[F#1]
[E] God our hope
[F#2] He has overcome
[G#m]  
All our failures
[B] And all our fear[F#1]
[E] God our love
[F#2] He has overcome
[G#m]  
God our justice
[B] God our grace[F#1]
[E] God our freedom
[F#2] He has overcome
[G#m]  
God our refuge
[B] God our strength[F#1]
[E] God is with us
[F#2] He has overcome
[G#m] [B] [F#1] [E] [F#2] 
He has overcome
[G#m] [B] [F#1] [E] [F#2] [B] 
VIOLIN INTERLUDE (6:14 - 7:37)
There you have it.
99% sure this is all accurate.
Questions/corrections : jschell17@gmail.com
Enjoy.

Important: The song above is NOT stored on the Chordie server. The original song is hosted at www.guitaretab.com. Chordie works as a search engine and provides on-the-fly formatting. Chordie does not index songs against artists'/composers' will. To remove this song please click here.

Text color:
Chord color:
Chord grids: 
Font size:    
Page size: 

B E F#2 G#m
Rate #0 of 9 versions

Jango Player

Login - add to songbook

SHARE PAGE  




You need to log in to post comments