Guitar Tabs, Chords and Lyrics
Server problems seems to be fixed. Chordie has been experiencing problems with songs disappearing. These issues now seems to be fixed, but still verifying the fix. If you find anything strange, please email admin@chordie.com.


Scandal of Grace  Hillsong United

This is a very simple song to play on the electric guitar. It's pretty versatile
if you want to add in some fills whatnot so have fun with it!
But if you're playing for church, don't go overboard!
Tabbed by: _ThePanda_
Verse 1 (Palm mute and strum the chords):
[C]Grace, what have you done?
[Am]Murdered for m[F]e on that [C]cross
Ac[C]cused in absence of wrong
My[Am] sin washed away[F] in Your [C]blood
Pre-chorus (Palm mute and strum the chords):
Too [Em]much to make [F]sense of it [C]all
I [Em]know that Your l[F]ove breaks my [C]fall
The [G]scandal of grace, You [Am]died in my place
So my [F]soul will live
Chorus (You can palm mute or strum the chords open):
Oh to be [C]like You
(To) Give all I have just to k[G]now You
Jesus there's no one bes[F]ides You
Forever the Hope in my [C]heart[F] [Am] [F]
Instrumental:
 
 e|------------------------------------------------------------------------------|
 B|-5-5-----5-5-6~----5-5-----5-5------------------------------------------------|
 G|-----7-7---------------7-7-----5~---------------------------------------------|
 D|------------------------------------------------------------------------------|
 A|------------------------------------------------------------------------------|
 E|------------------------------------------------------------------------------|

Verse 2 (Palm mute):
[C]Death, where is your sting?
Your [Am]power is as d[F]ead as my [C]sin
The [C]Cross has taught me to live
In [Am]mercy, my [F]heart now to sing[C]
Pre-chorus 2 (Palm mute or finger-pick):
The [Em]day and its [F]trouble shall come[C]
I [Em]know that Your s[F]trength is enoug[C]h
The [G]scandal of grace, You [Am]died in my place
So my [F]soul will live
Chorus:
Oh to be [C]like You
(To) Give all I have just to k[G]now You
Jesus there's no one bes[F]ides You
Forever the Hope in my [C]heart[F] [Am]
Instrumental:
 
 e|------------------------------------------------------------------------------|
 B|-5-5-----5-5-------5-5-----5-5------------------------------------------------|
 G|-----7-7----5~---------7-7-----5~---------------------------------------------|
 D|------------------------------------------------------------------------------|
 A|------------------------------------------------------------------------------|
 E|------------------------------------------------------------------------------|

Chorus:
Oh to be [C]like You
(To) Give all I have just to k[G]now You
Jesus there's no one bes[F]ides You
Forever the Hope in my [C]heart[F] [Am]
Instrumental:
 
 e|------------------------------------------------------------------------------|
 B|-5-5-----5-5-6~----5-5-----5-5------------------------------------------------|
 G|-----7-7---------------7-7-----5~-(x2)----------------------------------------|
 D|------------------------------------------------------------------------------|
 A|------------------------------------------------------------------------------|
 E|------------------------------------------------------------------------------|

Bridge:
[F]And it's [C]all because of You, Jesus
It's [G]all because of You, Jesus
It's [Am]all because of Your love
And my [F]soul will live
Chorus (x2):
Oh to be [C]like You
(To) Give all I have just to k[G]now You
Jesus there's no one bes[F]ides You
Forever the Hope in my [C]heart

Important: The song above is NOT stored on the Chordie server. The original song is hosted at www.guitaretab.com. Chordie works as a search engine and provides on-the-fly formatting. Chordie does not index songs against artists'/composers' will. To remove this song please click here.

Text color:
Chord color:
Chord grids: 
Font size:    
Page size: 

Am C Em F G
Rate #0 of 7 versions

Login - add to songbook

SHARE PAGE  



You need to log in to post comments