Guitar Tabs, Chords and Lyrics
Server problems seems to be fixed. Chordie has been experiencing problems with songs disappearing. These issues now seems to be fixed, but still verifying the fix. If you find anything strange, please email admin@chordie.com.


Acoustic Funeral (For Love in Limbo)  HIM

Acoustic Funeral (for love in limbo) (Acoustic)
From the Baudelaire in Braille album
Words and Music by Ville Valo
Tabbed by Jade_Simone
Tuning: Standard
[E] [B] [A]  
 
 e|--0---0--------0---0------------------|
 B|----0---4---4----2-------0h2-0--------|
 G|----------4---------------------------|
 D|-----------------------2--------------|
 A|---------------------0~~--------------|
 E|--------------------------------------|

[E] [B] [C#m] [A]  
 
 e|--0---0---------4---------------------|
 B|----0---4---4-----5-------------0h2-0-|
 G|----------4---------6-----------------|
 D|----------------------6-------2-------|
 A|------------------------4---0~~-------|
 E|--------------------------4-----------|

[E] [B] [A]  
 
 e|--0---0--------0---0---------0h2------|
 B|----0---4---4----2-------0h2----------|
 G|----------4---------------------------|
 D|-----------------------2--------------|
 A|---------------------0~~--------------|
 E|--------------------------------------|

[C#m] [B]  
 
 e|--4---4--2---2--4~~-------------------|
 B|--5-5-5--4-4-4--0~~-------------------|
 G|--------------------------------------|
 D|--------------------------------------|
 A|--------------------------------------|
 E|--------------------------------------|

[C#m]You missed the [B]winter and it [A]followed you back [E]home
Where [C#m]sun kissed the [B]crimson footsteps [A]in the melting [E]snow
We are [B]doing our best to disown the golden [A]mean
By these [B]acts of cruelty in the name of beauty to be [A]free
The [E]acoustic funer[B]al for love in [C#m]limbo[A]
We're [E]dancing with [B]tags on our [A]toes
I [E]saved my last [B]breath for your [C#m]window[A]
To [E]write [B]you this [A]song
For the [E]acoustic [B]funer[A]al
[C#m]On the verge of a [B]vow to kill all [A]reason locking that [E]door
To a [C#m]nightmare with[B]in a nightmare [A]we are bound to [E]adore
Let the [B]planchette in the shape of a heart glide[A] to oui
And [B]finally confirm all fears to be so [A]real
It's unreal
[C#m]Underneath the [B]ice so thin I am [A]turning blue
The [C#m]one last thing I [B]know to be real is the [A]shadow of you
[B]Killing love with a [E]kiss
The [E]acoustic funer[B]al for love in [C#m]limbo[A]
We're [E]dancing with [B]tags on our [A]toes
I [E]saved my last [B]breath for your [C#m]window[A]
To [E]write [B]you this [A]song
For the [E]acoustic [B]funer[A]al
Lets [E]ree[B]nact the[A] fall
For the [E]acoustic [B]funer[A]al
[A]Killing [B]love with a [E]kiss

Important: The song above is NOT stored on the Chordie server. The original song is hosted at www.guitaretab.com. Chordie works as a search engine and provides on-the-fly formatting. Chordie does not index songs against artists'/composers' will. To remove this song please click here.

Text color:
Chord color:
Chord grids: 
Font size:    
Page size: 

A B C#m E
Rate #1 of 3 versions

Login - add to songbook

SHARE PAGE  



You need to log in to post comments