Guitar Tabs, Chords and Lyrics
Major upgrade!! After one year development the new version of Chordie is now online! Please give feedback.


Bigger Hole to Fill  The Hives

my first tab and i'm 100% sure about this. anything you wanna say? my email is:
hope you enjoy
intro:
 
 e|------------------------------|
 b|------------------------------|
 g|------------------------------|
 d|------------------------------|
 a|--------5-9----7-7-9-7-5------|
 e|--7-5-7------------------7-5--|

pre-chorus:
[B] [F#] [D] [A]  
 
 e|------------------------------|
 b|------------------------------|
 g|----------11-----7------------| X2
 d|----9-----11-----7-----7------|
 a|----9---9-9----5-5-----7------|
 e|--7-7----------------5-5------|

chorus:
 
 e|---0~---------|
 b|---0~---------|
 g|---0~--- 


Important: The song above is NOT stored on the Chordie server. The original song is hosted at www.guitaretab.com. Chordie works as a search engine and provides on-the-fly formatting. Chordie does not index songs against artists'/composers' will. To remove this song please click here.

Text color:
Chord color:
Chord grids: 
Font size:    
Page size: 

A B D F#
Rate #2 of 3 versions

Login - add to songbook

SHARE PAGE  




You need to log in to post comments