Guitar Tabs, Chords and Lyrics
Server problems seems to be fixed. Chordie has been experiencing problems with songs disappearing. These issues now seems to be fixed, but still verifying the fix. If you find anything strange, please email admin@chordie.com.


Nije sve tako sivo  Hladno pivo

//=TREMOLO PICKING
Intro: Bass 2x
 
 e-----------------------------------------------------------------------/
 B-----------------------------------------------------------------------/
 G------------------------------------------2----2-----------------------/
 D-----0-0-3-0--3-0---------0---0-------3-3---3----3-0-------------------/
 A------------------0---1-1---1---1-0--------------------0-0-0-1--1-3-3--/
 E-----------------------------------------------------------------------/

Bass vrti to do refrena
Gitara poslije 2x bassa ima:
Riff 1
 
 e-----------------------------------------/
 H---5-6------5-6------5-6------5-5-5--6--8/
 G-----------------------------------------/
 D-----------------------------------------/
 A-----------------------------------------/
 E-----------------------------------------/

Riff 2
 
 e---12//-13-13-13-13--12//-13-13-13-13--12//-13-13-13-13--12//-12-12-12-13-15/
 H----------------------------------------------------------------------------/
 G----------------------------------------------------------------------------/
 D----------------------------------------------------------------------------/
 A----------------------------------------------------------------------------/
 E----------------------------------------------------------------------------/

Intro 2x
2x Riff 1
Red suza, red bijesa zbog SMS-a
Tvoje du?evno stanje je poput lasagne
Zar na tebi da ?tedi? Da te tako uvrijedi?
Crven u licu gnječi? limenku piva
2x Riff 2
2x Riff 2
Njen «sori» po Vuku i smajli na ekranu
Idu ruku pod ruku kao sol na ranu
Zar nakon svega joj nisi ni poziva vrijedan
A zbog nje si pre?'o na 09*?
Barem te n[D5]itko neće muč[A#5]iti sa francusko[F5]m dr[E5]amo[F5]m[G5]
Po[D5]sudit će? si film[A#5] sa ?anklodvandamo[F5]m[E5] [F5] [G5]
Zbogom fi[D5]lmovi bez boje i od[A#5]resci od soje
Poz[F5]vat će? kod sebe s[A5]ve fren[A#5]dove[A5] svoje
Pod h[D5]itno ti sad treba [A#5]par promila
[F5]I barem tona [A5]TESTOST[A#5]ERON[A5]A!!!!
2x Refren:
Nije [D5]sve, nije [F5]sve tako sivo[C5] [A5] [A#5] [A5]
Kad i[D5]ma? s nekim o[F5]tić' na p[C5]ivo[A5] [A#5] [A5]
I dok ?an izbija bubreg nekom sporednom liku
Ti od suza jedva i da vidi? sliku
Zbog nje su dečki pi?ali sjedečki
Sad, jebi ga, ?ta će?, sjedi? i plače?
Treba ti par promila, mu?ka idila
I barem tona TESTOSTERONA!!!!
Nije sve, nije sve tako sivo
Kad ima? s nekim otić na pivo

Important: The song above is NOT stored on the Chordie server. The original song is hosted at www.guitaretab.com. Chordie works as a search engine and provides on-the-fly formatting. Chordie does not index songs against artists'/composers' will. To remove this song please click here.

Text color:
Chord color:
Chord grids: 
Font size:    
Page size: 

A#5 A5 C5 D5 E5 F5 G5
Rate #1 of 2 versions

Login - add to songbook

SHARE PAGE  




You need to log in to post comments