Guitar Tabs, Chords and Lyrics
Major upgrade!! After one year development the new version of Chordie is now online! Please give feedback.


Konobar  Hladno pivo

INTRO SOLO:
[D]  
 
 -------------------------|
 -------------------------|
 -------------------------|
 ---------4-4-5-4---4-----|
 -----5-7---------7---7-5-|
 -5-5---------------------| 2x

[A]  
 
 -----------|
 -----------|
 -----------|
 -5-7-5-4---|
 ---------7-|
 -----------| 2x

[G] [A]  
 
 -----------------|
 -----------------|
 -----------------|
 -5-4---------4---|
 -----7-5-7-7---4-|
 -----------------| 2x

[D]  
 
 -------------------------|
 -------------------------|
 -------------------------|
 ---------4-4-5-4---4-----|
 -----5-7---------7---7-5-|
 -5-5---------------------| 2x

[A]  
 
 -------------|
 -------------|
 -------------|
 -------------|
 -------------|
 -5-7-5-4-3-3-| 2x

[G] [A]  
 
 -----------------|
 -----------------|
 -----------------|
 -----------------|
 -5-5-7-5-7-7-9-7-|
 -----------------| 2x

[D]Konobar zijeva, [D]vani lagano svice
A ja [A]pijan k'o deva bih jos [G]narucio pic[A]e
[D]Ali kakva blamaza, jezik lamata krivo
[D]Ne zna kako se kaze pelin i pivo
Srecom [A]nije seljober, pa da previse pita
Nego [G]pametan ober sto iz [A]ociju cita
[D]  
 
 -------------------------|
 -------------------------|
 -------------------------|
 ---------4-4-5-4---4-----|
 -----5-7---------7---7-5-|
 -5-5---------------------| 2x

[Bm]Svu moju bol mada [F#m]nisam ni pisno
Pa [G]stavlja na stol [A]jos jednom isto
[Bm]I to je ta kap [F#m]koja prelijeva casu
[G] [A] [A] [D] [A] 
[G]Pl[F#m]acem ko slap dok naginjem flasu
[D]Zasto sam ja uvijek ta [A]jebena stranka
I zasto [F#m]ti nisi bar s one [G]strane sanka
[D]Zasto sam ja uvijek ta [A]jebena stranka
Zasto [F#m]srodna dusa mora [G]bas biti [A]muska ???
[D]Kad si dvojica tak pasu to je bolje od seksa
[D]Jedan dodaje casu, a drugi eksa
On [A]nije ni priglup, ni naravi skrte
I [G]uvijek mi kriglu [A]natoci do crte
TRUBA SOLO: D D A G A 2x
On kuzi [Bm]svu moju bol mada [F#m]nisam ni pisno
Pa [G]stavlja na stol [A]jos jednom isto
[Bm]I to je ta kap [F#m]koja prelijeva casu
[G] [A] [A] [D] [A] 
[G]Pl[F#m]acem ko slap dok naginjem flasu
[D]Zasto sam ja uvijek ta [A]jebena stranka
I zasto [F#m]ti nisi bar s one [G]strane sanka
[D]Zasto sam ja uvijek ta [A]jebena stranka
Zasto [F#m]srodna dusa mora [G]bas biti [A]muska ???
[D]Zasto sam ja uvijek ta [A]jebena stranka
I zasto [F#m]ti nisi bar s one [G]strane sanka
[D]Zasto sam ja uvijek ta [A]jebena stranka

Important: The song above is NOT stored on the Chordie server. The original song is hosted at www.guitaretab.com. Chordie works as a search engine and provides on-the-fly formatting. Chordie does not index songs against artists'/composers' will. To remove this song please click here.

Text color:
Chord color:
Chord grids: 
Font size:    
Page size: 

A Bm D F#m G
Rate #1 of 2 versions

Jango Player

Login - add to songbook

SHARE PAGE  



You need to log in to post comments