Guitar Tabs, Chords and Lyrics
Server problems seems to be fixed. Chordie has been experiencing problems with songs disappearing. These issues now seems to be fixed, but still verifying the fix. If you find anything strange, please email admin@chordie.com.


Ne volim te  Hladno pivo

********************* NE VOLIM TE *********************
Ne volim [C]te, nit sam te ikad [G]volio
Na tvoje [F]omiljeno pitanje [a]evo ti [G]odgovor
Bio sam [C]mlad i totalno za[G]gorio
[F] Tako je valjda[a] sve to krenu[G]lo
 
 e-------------------------------------------------------
 h-------------------------------------------------------
 g----------------------5--4-2-0-------------------------
 d-----0-2----------0-2--------------0-2--5-0-2-3-2-0----
 a--3---------0-2-3---------------3-------------------3--
 e----------3-------------------------------------------- x2

Ustao [C5]sam ujutro, s glavom nateklom
I [G5]zakacio malim noznim prstom o stol
[F5] Spotaknuo se o tvoje papuce
U padu [A5]otkinuo zastor i [G5]glavom puko u [C5]radijator
I [C5]htio sam ti baciti vazu u glavu
Kad si s[G5]e probudila i poslala me k vragu
Al' sam [F5]u agoniji bola, stenjao ispod stola
U g[A5]rcu se previjao [G5]kad mi je sinulo
[C5]  
 
 e---------------------------------
 h---------------------------------
 g---------------------------------
 d-----0-2-----------0-2--------5--
 a--3---------0-2-3---------0-2-3--
 e----------3-------------3--------

[C5]Ne volim te, nit sam te ikad voli[G5]o
Na tvoje [F5]omiljeno pitanje [A5]evo ti [G5]odgovor
Bio sam [C5]mlad i totalno z[G5]agorio
[F5] Tako je valjda [A5]sve to krenu[G5]lo
 
 e-------------------------------------------------------
 h-------------------------------------------------------
 g----------------------5--4-2-0-------------------------
 d-----0-2----------0-2--------------0-2--5-0-2-3-2-0----
 a--3---------0-2-3---------------3-------------------3--
 e----------3-------------------------------------------- x2

[C5]Od samoce i dobrog sexa nastala je nasa veza
[G5]Pocetni zar je bio [C5]zavid[G5]an
Da nisam [F5]svakoga dana otkrio jos mana
Sad si u [A5]mojim ocima samo jos [G5]greska na noga[C5]ma
 
 e-------------------------------------------------------
 h-------------------------------------------------------
 g----------------------5--4-2-0-------------------------
 d-----0-2----------0-2--------------0-2--5-0-2-3-2-0----
 a--3---------0-2-3---------------3-------------------3--
 e----------3--------------------------------------------

[A5]Sto se smijes ko hijena to me [F5]toliko ne smeta
[C5]Koliko neke druge n[G5]avike
Nit sto [A5]vrece od tampona bacas [F5]stalno sa balkona
Samo [C5]jedno ipak ne razumij[G5]em
Nije mi jasno
Sto ne zatvaras zubnu pastu,
Ustvari
[C5]Ne volim te, nit sam te ikad voli[G5]o
Na tvoje [F5]omiljeno pitanje [A5]evo ti [G5]odgovor
Bio sam [C5]mlad i totalno za[G5]gorio
[F5] Tako je valjda [A5]sve to krenu[G5]lo
Ne volim [D5]te, nit sam te ikad vol[A5]io
Na tvoje [G5]omiljeno pitanje [B5]evo ti [A5]odgovor
Bio sam [D5]mlad i totalno za[A5]gorio
[G5] Tako je valjda [B5]sve to krenu[A5]lo
Ne volim [D5]te

Important: The song above is NOT stored on the Chordie server. The original song is hosted at www.guitaretab.com. Chordie works as a search engine and provides on-the-fly formatting. Chordie does not index songs against artists'/composers' will. To remove this song please click here.

Text color:
Chord color:
Chord grids: 
Font size:    
Page size: 

A5 B5 C C5 D5 F F5 G G5
Rate #1 of 2 versions

Jango Player

Login - add to songbook

SHARE PAGE  



You need to log in to post comments