Guitar Tabs, Chords and Lyrics
Major upgrade!! After one year development the new version of Chordie is now online! Please give feedback.


Deliver Me   The Hooters

 
 E -----3----2-----0----------------------------------------------0--|
 H -----3-------------3----3--------3--------3-------------3---------|
 G ----------------------0--------- -0--------0----------0-----------|
 D ------------------------------------------------------------------|
 A -----------2----3---------------------2----------3----------------|
 E -----3------------------------3-----------------------------------|

 


 


 Verse: "Zig, zag......."


 


 Chorus:


 

 
 e -----2----2------3p2------------------------2----2------3p2--------------------0--|
 H -----3--------3--------3------ 3-------------3--------3--------3------------3 ----|
 G -----2----------- 2-------0--- 0-------------2----------- 2-------0------0--------|
 D -----0------------------------ 2-------------0------------------------------------|
 A -------------------------------3---------------------------------------3----------|
 E ----------------------------------------------------------------------------------|

 


 Chorus: "Oh, how I needed you tonight...."


 


 

 
 e ------------------------------------0--- 2--2p3----3--------------0--------------------------------|
 H ----------3--------3-----------3--------3----------3---------3---------2---------------------------|
 G ----------0--------0--------0-----------2----------0---------0--- 0----3----let ring---------------|
 D -----------------------------------------0-------------------------2---- 0--- and go to main riff--|
 A ---------------2--------3-------------------------------------3------------------------------------|
 E -----3----------------------------------------------3----------------------------------------------|


Important: The song above is NOT stored on the Chordie server. The original song is hosted at www.guitaretab.com. Chordie works as a search engine and provides on-the-fly formatting. Chordie does not index songs against artists'/composers' will. To remove this song please click here.

This song is displayed as text-only. Transposing and tuning is only available for chordpro-songs.
Rate #2 of 2 versions

Jango Player

Login - add to songbook

SHARE PAGE  




You need to log in to post comments