Guitar Tabs, Chords and Lyrics
Major upgrade!! After one year development the new version of Chordie is now online! Please give feedback.


Honeyscrew  Hootie & the Blowfish

Tab by Tom C
manonthegrassyknoll@hotmail.com
Hootie and the Blowfish
Honeyscrew
x [Dadd9/A]0 4 2 3 0 0 0 2[A] 2 2 0 3 2 0[G] 0 0 3 x x 0[D] 2 3 2
3 5 x[G5] x x x x x 0[D9] 2 1 0 0 2 2[E] 1 0 0 x 3 2[C] 0 1 0
x 0 2[A5] 2 5 5 0 2 0[E7] 1 0 0
[A] [Dadd9/A] [G] [A]  
 
 ||----------|------------|-------------|-0--------|----------|
 ||----2-----|------3-----|-------------|-2--------|----2-----|
 ||-------2--|---------2--|-------------|-2--------|-------2--|
 ||----------|-3/-4-------|-------------|-2--------|----------|
 ||-0--------|------------|------2b3r2--|-0--------|-0--------|
 ||----------|------------|-3-----------|----0--2--|----------|

[Dadd9/A] [G] [D] [A] [Dadd9/A]  
 
 |------------|-------------|-2--------|----------|------------|
 |------3-----|-------------|-3--------|----2-----|------3-----|
 |---------2--|-------------|-2--2-----|-------2--|---------2--|
 |-3/-4-------|-------------|-0-----2--|----------|-3/-4-------|
 |------------|------2b3r2--|-0--------|-0--------|------------|
 |------------|-3-----------|----------|----------|------------|

[G] [A]  
 
 |-------------|-0--------|
 |-------------|-2--------|
 |-------------|-2--------|
 |-------------|-2--------|
 |------2b3r2--|-0--------| Repeat the A-Dadd9/A-G-A, A-Dadd9/A-G-D
 |-3-----------|----0--2--| riff throughout the verse, as follows:

[A] [Dadd9/A] [G] [D]  
Fly inside, feel me dealin'
[A] [Dadd9/A] [G] [A]  
Holdin' on to a story just told
[A] [Dadd9/A] [G] [D]  
'Bout a man who's the life of a funeral
[A] [Dadd9/A] [G] [A]  
Grabbin' on to a woman who's soul
[A] [Dadd9/A] [G] [D] 
He just stole for a dream he don't believe in
[A] [Dadd9/A] [G] [A]  
Now she sits and she yells for a smile
[A] [Dadd9/A] [G] [D]  
"Don't let the sun make me feel lonely"
[A] [Dadd9/A] [G5]  
 
 |----------|------------|----------|
 |----2-----|------3-----|----------|
 |-------2--|---------2--|----------|
 |----------|-3/-4-------|----------|
 |-0--------|------------|-5--5--5--|
 |----------|------------|-3--3--3--|

Oh let me in, let me in, let me in
[A] [D9] [E] [D9]  
Is it me
[A] [D9] [E] [D9]  
Or is it honey?
(second verse, same as the first verse)
(mute strings)
[C] [G] [A5]  
Is it me trying to raise your little children
[C] [G] [A5]  
Is it me trying to take your little flame
[C] [G] [A5]  
Why are you trying to steal my judgement day away
[C] [G] [E7]  
Let me scream let me scream let me scream
[A] [Dadd9/A] [G] [D]  
Don't take it away
[A]A [Dadd9/A]Dadd9/A [G]G [A]D (under solo...sorry, I haven't
A Dadd9/A G A tabbed it out, yet...)
[A] [Dadd9/A] [G] [D]  
Another day in the arms of the real thing
[A] [Dadd9/A] [G] [A]  
Another day in the eyes of a fool
[A] [Dadd9/A] [G] [D] 
I called today just to make me feel hopeless
[A] [Dadd9/A] [G5]  
Lie to me and I'll try to believe

Important: The song above is NOT stored on the Chordie server. The original song is hosted at www.guitaretab.com. Chordie works as a search engine and provides on-the-fly formatting. Chordie does not index songs against artists'/composers' will. To remove this song please click here.

Text color:
Chord color:
Chord grids: 
Font size:    
Page size: 

A A5 C D D9 Dadd9/A E E7 G G5
Rate #1 of 4 versions

Jango Player

Login - add to songbook

SHARE PAGE  




You need to log in to post comments